  0
SECTION
  2
HEADER
  9
$ACADVER
  1
AC1024
  9
$ACADMAINTVER
 70
     6
  9
$DWGCODEPAGE
  3
UNDEFINED
  9
$INSBASE
 10
0.0
 20
0.0
 30
0.0
  9
$EXTMIN
 10
1.000000000000000E+20
 20
1.000000000000000E+20
 30
1.000000000000000E+20
  9
$EXTMAX
 10
-1.000000000000000E+20
 20
-1.000000000000000E+20
 30
-1.000000000000000E+20
  9
$LIMMIN
 10
0.0
 20
0.0
  9
$LIMMAX
 10
12.0
 20
9.0
  9
$ORTHOMODE
 70
     0
  9
$REGENMODE
 70
     1
  9
$FILLMODE
 70
     1
  9
$QTEXTMODE
 70
     0
  9
$MIRRTEXT
 70
     1
  9
$LTSCALE
 40
1.0
  9
$ATTMODE
 70
     1
  9
$TEXTSIZE
 40
0.2
  9
$TRACEWID
 40
0.05
  9
$TEXTSTYLE
  7
Standard
  9
$CLAYER
  8
0
  9
$CELTYPE
  6
ByLayer
  9
$CECOLOR
 62
   256
  9
$CELTSCALE
 40
1.0
  9
$DISPSILH
 70
     0
  9
$DIMSCALE
 40
1.0
  9
$DIMASZ
 40
0.18
  9
$DIMEXO
 40
0.0625
  9
$DIMDLI
 40
0.38
  9
$DIMRND
 40
0.0
  9
$DIMDLE
 40
0.0
  9
$DIMEXE
 40
0.18
  9
$DIMTP
 40
0.0
  9
$DIMTM
 40
0.0
  9
$DIMTXT
 40
0.18
  9
$DIMCEN
 40
0.09
  9
$DIMTSZ
 40
0.0
  9
$DIMTOL
 70
     0
  9
$DIMLIM
 70
     0
  9
$DIMTIH
 70
     1
  9
$DIMTOH
 70
     1
  9
$DIMSE1
 70
     0
  9
$DIMSE2
 70
     0
  9
$DIMTAD
 70
     0
  9
$DIMZIN
 70
     0
  9
$DIMBLK
  1

  9
$DIMASO
 70
     1
  9
$DIMSHO
 70
     1
  9
$DIMPOST
  1

  9
$DIMAPOST
  1

  9
$DIMALT
 70
     0
  9
$DIMALTD
 70
     2
  9
$DIMALTF
 40
25.4
  9
$DIMLFAC
 40
1.0
  9
$DIMTOFL
 70
     0
  9
$DIMTVP
 40
0.0
  9
$DIMTIX
 70
     0
  9
$DIMSOXD
 70
     0
  9
$DIMSAH
 70
     0
  9
$DIMBLK1
  1

  9
$DIMBLK2
  1

  9
$DIMSTYLE
  2
Standard
  9
$DIMCLRD
 70
     0
  9
$DIMCLRE
 70
     0
  9
$DIMCLRT
 70
     0
  9
$DIMTFAC
 40
1.0
  9
$DIMGAP
 40
0.09
  9
$DIMJUST
 70
     0
  9
$DIMSD1
 70
     0
  9
$DIMSD2
 70
     0
  9
$DIMTOLJ
 70
     1
  9
$DIMTZIN
 70
     0
  9
$DIMALTZ
 70
     0
  9
$DIMALTTZ
 70
     0
  9
$DIMUPT
 70
     0
  9
$DIMDEC
 70
     4
  9
$DIMTDEC
 70
     4
  9
$DIMALTU
 70
     2
  9
$DIMALTTD
 70
     2
  9
$DIMTXSTY
  7
Standard
  9
$DIMAUNIT
 70
     0
  9
$DIMADEC
 70
     0
  9
$DIMALTRND
 40
0.0
  9
$DIMAZIN
 70
     0
  9
$DIMDSEP
 70
    46
  9
$DIMATFIT
 70
     3
  9
$DIMFRAC
 70
     0
  9
$DIMLDRBLK
  1

  9
$DIMLUNIT
 70
     2
  9
$DIMLWD
 70
    -2
  9
$DIMLWE
 70
    -2
  9
$DIMTMOVE
 70
     0
  9
$DIMFXL
 40
1.0
  9
$DIMFXLON
 70
     0
  9
$DIMJOGANG
 40
0.7853981633974483
  9
$DIMTFILL
 70
     0
  9
$DIMTFILLCLR
 70
     0
  9
$DIMARCSYM
 70
     0
  9
$DIMLTYPE
  6

  9
$DIMLTEX1
  6

  9
$DIMLTEX2
  6

  9
$DIMTXTDIRECTION
 70
     0
  9
$LUNITS
 70
     2
  9
$LUPREC
 70
     4
  9
$SKETCHINC
 40
0.1
  9
$FILLETRAD
 40
0.5
  9
$AUNITS
 70
     0
  9
$AUPREC
 70
     0
  9
$MENU
  1
.
  9
$ELEVATION
 40
0.0
  9
$PELEVATION
 40
0.0
  9
$THICKNESS
 40
0.0
  9
$LIMCHECK
 70
     0
  9
$CHAMFERA
 40
0.5
  9
$CHAMFERB
 40
0.5
  9
$CHAMFERC
 40
1.0
  9
$CHAMFERD
 40
0.0
  9
$SKPOLY
 70
     0
  9
$TDCREATE
 40
2458040.555740729
  9
$TDUCREATE
 40
2458040.889074074
  9
$TDUPDATE
 40
2458040.555740729
  9
$TDUUPDATE
 40
2458040.889074074
  9
$TDINDWG
 40
0.0000000116
  9
$TDUSRTIMER
 40
0.0000000116
  9
$USRTIMER
 70
     1
  9
$ANGBASE
 50
0.0
  9
$ANGDIR
 70
     0
  9
$PDMODE
 70
     0
  9
$PDSIZE
 40
0.0
  9
$PLINEWID
 40
0.0
  9
$SPLFRAME
 70
     0
  9
$SPLINETYPE
 70
     6
  9
$SPLINESEGS
 70
     8
  9
$HANDSEED
  5
467
  9
$SURFTAB1
 70
     6
  9
$SURFTAB2
 70
     6
  9
$SURFTYPE
 70
     6
  9
$SURFU
 70
     6
  9
$SURFV
 70
     6
  9
$UCSBASE
  2

  9
$UCSNAME
  2

  9
$UCSORG
 10
0.0
 20
0.0
 30
0.0
  9
$UCSXDIR
 10
1.0
 20
0.0
 30
0.0
  9
$UCSYDIR
 10
0.0
 20
1.0
 30
0.0
  9
$UCSORTHOREF
  2

  9
$UCSORTHOVIEW
 70
     0
  9
$UCSORGTOP
 10
0.0
 20
0.0
 30
0.0
  9
$UCSORGBOTTOM
 10
0.0
 20
0.0
 30
0.0
  9
$UCSORGLEFT
 10
0.0
 20
0.0
 30
0.0
  9
$UCSORGRIGHT
 10
0.0
 20
0.0
 30
0.0
  9
$UCSORGFRONT
 10
0.0
 20
0.0
 30
0.0
  9
$UCSORGBACK
 10
0.0
 20
0.0
 30
0.0
  9
$PUCSBASE
  2

  9
$PUCSNAME
  2

  9
$PUCSORG
 10
0.0
 20
0.0
 30
0.0
  9
$PUCSXDIR
 10
1.0
 20
0.0
 30
0.0
  9
$PUCSYDIR
 10
0.0
 20
1.0
 30
0.0
  9
$PUCSORTHOREF
  2

  9
$PUCSORTHOVIEW
 70
     0
  9
$PUCSORGTOP
 10
0.0
 20
0.0
 30
0.0
  9
$PUCSORGBOTTOM
 10
0.0
 20
0.0
 30
0.0
  9
$PUCSORGLEFT
 10
0.0
 20
0.0
 30
0.0
  9
$PUCSORGRIGHT
 10
0.0
 20
0.0
 30
0.0
  9
$PUCSORGFRONT
 10
0.0
 20
0.0
 30
0.0
  9
$PUCSORGBACK
 10
0.0
 20
0.0
 30
0.0
  9
$USERI1
 70
     0
  9
$USERI2
 70
     0
  9
$USERI3
 70
     0
  9
$USERI4
 70
     0
  9
$USERI5
 70
     0
  9
$USERR1
 40
0.0
  9
$USERR2
 40
0.0
  9
$USERR3
 40
0.0
  9
$USERR4
 40
0.0
  9
$USERR5
 40
0.0
  9
$WORLDVIEW
 70
     1
  9
$SHADEDGE
 70
     3
  9
$SHADEDIF
 70
    70
  9
$TILEMODE
 70
     1
  9
$MAXACTVP
 70
    64
  9
$PINSBASE
 10
0.0
 20
0.0
 30
0.0
  9
$PLIMCHECK
 70
     0
  9
$PEXTMIN
 10
1.000000000000000E+20
 20
1.000000000000000E+20
 30
1.000000000000000E+20
  9
$PEXTMAX
 10
-1.000000000000000E+20
 20
-1.000000000000000E+20
 30
-1.000000000000000E+20
  9
$PLIMMIN
 10
0.0
 20
0.0
  9
$PLIMMAX
 10
12.0
 20
9.0
  9
$UNITMODE
 70
     0
  9
$VISRETAIN
 70
     1
  9
$PLINEGEN
 70
     0
  9
$PSLTSCALE
 70
     1
  9
$TREEDEPTH
 70
  3020
  9
$CMLSTYLE
  2
Standard
  9
$CMLJUST
 70
     0
  9
$CMLSCALE
 40
1.0
  9
$PROXYGRAPHICS
 70
     1
  9
$MEASUREMENT
 70
     0
  9
$CELWEIGHT
370
    -1
  9
$ENDCAPS
280
     0
  9
$JOINSTYLE
280
     0
  9
$LWDISPLAY
290
     1
  9
$INSUNITS
 70
     1
  9
$HYPERLINKBASE
  1

  9
$STYLESHEET
  1

  9
$XEDIT
290
     1
  9
$CEPSNTYPE
380
     0
  9
$PSTYLEMODE
290
     1
  9
$FINGERPRINTGUID
  2
{9FDFB87E-A9A4-3FB9-9356-6CCE34B56E89}
  9
$VERSIONGUID
  2
{FAEB1C32-E019-11D5-929B-00C0DF256EC4}
  9
$EXTNAMES
290
     1
  9
$PSVPSCALE
 40
0.0
  9
$OLESTARTUP
290
     0
  9
$SORTENTS
280
   127
  9
$INDEXCTL
280
     0
  9
$HIDETEXT
280
     1
  9
$XCLIPFRAME
280
     2
  9
$HALOGAP
280
     0
  9
$OBSCOLOR
 70
   257
  9
$OBSLTYPE
280
     0
  9
$INTERSECTIONDISPLAY
280
     0
  9
$INTERSECTIONCOLOR
 70
   257
  9
$DIMASSOC
280
     2
  9
$PROJECTNAME
  1

  9
$CAMERADISPLAY
290
     0
  9
$LENSLENGTH
 40
50.0
  9
$CAMERAHEIGHT
 40
0.0
  9
$STEPSPERSEC
 40
2.0
  9
$STEPSIZE
 40
6.0
  9
$3DDWFPREC
 40
2.0
  9
$PSOLWIDTH
 40
0.25
  9
$PSOLHEIGHT
 40
4.0
  9
$LOFTANG1
 40
1.570796326794897
  9
$LOFTANG2
 40
1.570796326794897
  9
$LOFTMAG1
 40
0.0
  9
$LOFTMAG2
 40
0.0
  9
$LOFTPARAM
 70
     7
  9
$LOFTNORMALS
280
     1
  9
$LATITUDE
 40
37.795
  9
$LONGITUDE
 40
-122.394
  9
$NORTHDIRECTION
 40
0.0
  9
$TIMEZONE
 70
 -8000
  9
$LIGHTGLYPHDISPLAY
280
     1
  9
$TILEMODELIGHTSYNCH
280
     1
  9
$CMATERIAL
347
3C
  9
$SOLIDHIST
280
     1
  9
$SHOWHIST
280
     1
  9
$DWFFRAME
280
     2
  9
$DGNFRAME
280
     2
  9
$REALWORLDSCALE
290
     1
  9
$INTERFERECOLOR
 62
   256
  9
$CSHADOW
280
     0
  9
$SHADOWPLANELOCATION
 40
0.0
  0
ENDSEC
  0
SECTION
  2
CLASSES
  0
CLASS
  1
ACDBDICTIONARYWDFLT
  2
AcDbDictionaryWithDefault
  3
ObjectDBX Classes
 90
        0
 91
        4
280
     0
281
     0
  0
CLASS
  1
VISUALSTYLE
  2
AcDbVisualStyle
  3
ObjectDBX Classes
 90
     4095
 91
        4
280
     0
281
     0
  0
CLASS
  1
MATERIAL
  2
AcDbMaterial
  3
ObjectDBX Classes
 90
     1153
 91
        4
280
     0
281
     0
  0
CLASS
  1
SUN
  2
AcDbSun
  3
SCENEOE
 90
     1024
 91
        4
280
     0
281
     0
  0
ENDSEC
  0
SECTION
  2
TABLES
  0
TABLE
  2
VPORT
  5
8
330
0
100
AcDbSymbolTable
 70
     1
  0
VPORT
  5
29
330
8
100
AcDbSymbolTableRecord
100
AcDbViewportTableRecord
  2
*Active
 70
     0
 10
0.0
 20
0.0
 11
1.0
 21
1.0
 12
0.0
 22
0.0
 13
0.0
 23
0.0
 14
0.5
 24
0.5
 15
0.5
 25
0.5
 16
0.0
 26
0.0
 36
1.0
 17
30.91772460938083
 27
-5.5
 37
0.0
 40
11.0
 41
0.7727272727272727
 42
50.0
 43
0.0
 44
0.0
 50
0.0
 51
0.0
 71
     0
 72
   100
 73
     1
 74
     3
 75
     0
 76
     0
 77
     0
 78
     0
281
     0
 65
     1
110
0.0
120
0.0
130
0.0
111
1.0
121
0.0
131
0.0
112
0.0
122
1.0
132
0.0
 79
     0
146
0.0
 60
     3
 61
     5
292
     1
282
     1
141
0.0
142
0.0
 63
   250
361
3F
  0
ENDTAB
  0
TABLE
  2
LTYPE
  5
5
330
0
100
AcDbSymbolTable
 70
     1
  0
LTYPE
  5
14
330
5
100
AcDbSymbolTableRecord
100
AcDbLinetypeTableRecord
  2
ByBlock
 70
     0
  3

 72
    65
 73
     0
 40
0.0
  0
LTYPE
  5
15
330
5
100
AcDbSymbolTableRecord
100
AcDbLinetypeTableRecord
  2
ByLayer
 70
     0
  3

 72
    65
 73
     0
 40
0.0
  0
LTYPE
  5
16
330
5
100
AcDbSymbolTableRecord
100
AcDbLinetypeTableRecord
  2
Continuous
 70
     0
  3
Solid line
 72
    65
 73
     0
 40
0.0
  0
ENDTAB
  0
TABLE
  2
LAYER
  5
2
330
0
100
AcDbSymbolTable
 70
     2
  0
LAYER
  5
10
330
2
100
AcDbSymbolTableRecord
100
AcDbLayerTableRecord
  2
0
 70
     0
 62
     7
  6
Continuous
370
    -3
390
F
347
3E
  0
LAYER
  5
40
330
2
100
AcDbSymbolTableRecord
100
AcDbLayerTableRecord
  2
Layer 1
 70
     0
 62
     7
  6
Continuous
370
    -3
390
F
347
3E
  0
ENDTAB
  0
TABLE
  2
STYLE
  5
3
330
0
100
AcDbSymbolTable
 70
     1
  0
STYLE
  5
11
330
3
100
AcDbSymbolTableRecord
100
AcDbTextStyleTableRecord
  2
Standard
 70
     0
 40
0.0
 41
1.0
 50
0.0
 71
     0
 42
0.2
  3
txt
  4

  0
ENDTAB
  0
TABLE
  2
VIEW
  5
6
330
0
100
AcDbSymbolTable
 70
     0
  0
ENDTAB
  0
TABLE
  2
UCS
  5
7
330
0
100
AcDbSymbolTable
 70
     0
  0
ENDTAB
  0
TABLE
  2
APPID
  5
9
330
0
100
AcDbSymbolTable
 70
     1
  0
APPID
  5
12
330
9
100
AcDbSymbolTableRecord
100
AcDbRegAppTableRecord
  2
ACAD
 70
     0
  0
ENDTAB
  0
TABLE
  2
DIMSTYLE
  5
A
330
0
100
AcDbSymbolTable
 70
     1
100
AcDbDimStyleTable
  0
DIMSTYLE
105
27
330
A
100
AcDbSymbolTableRecord
100
AcDbDimStyleTableRecord
  2
Standard
 70
     0
178
     0
340
11
  0
ENDTAB
  0
TABLE
  2
BLOCK_RECORD
  5
1
330
0
100
AcDbSymbolTable
 70
     1
  0
BLOCK_RECORD
  5
1F
330
1
100
AcDbSymbolTableRecord
100
AcDbBlockTableRecord
  2
*Model_Space
340
22
 70
     0
280
     1
281
     0
  0
BLOCK_RECORD
  5
1B
330
1
100
AcDbSymbolTableRecord
100
AcDbBlockTableRecord
  2
*Paper_Space
340
1E
 70
     0
280
     1
281
     0
  0
BLOCK_RECORD
  5
23
330
1
100
AcDbSymbolTableRecord
100
AcDbBlockTableRecord
  2
*Paper_Space0
340
26
 70
     0
280
     1
281
     0
  0
ENDTAB
  0
ENDSEC
  0
SECTION
  2
BLOCKS
  0
BLOCK
  5
20
330
1F
100
AcDbEntity
  8
0
100
AcDbBlockBegin
  2
*Model_Space
 70
     0
 10
0.0
 20
0.0
 30
0.0
  3
*Model_Space
  1

  0
ENDBLK
  5
21
330
1F
100
AcDbEntity
  8
0
100
AcDbBlockEnd
  0
BLOCK
  5
1C
330
1B
100
AcDbEntity
 67
     1
  8
0
100
AcDbBlockBegin
  2
*Paper_Space
 70
     0
 10
0.0
 20
0.0
 30
0.0
  3
*Paper_Space
  1

  0
ENDBLK
  5
1D
330
1B
100
AcDbEntity
 67
     1
  8
0
100
AcDbBlockEnd
  0
BLOCK
  5
24
330
23
100
AcDbEntity
  8
0
100
AcDbBlockBegin
  2
*Paper_Space0
 70
     0
 10
0.0
 20
0.0
 30
0.0
  3
*Paper_Space0
  1

  0
ENDBLK
  5
25
330
23
100
AcDbEntity
  8
0
100
AcDbBlockEnd
  0
ENDSEC
  0
SECTION
  2
ENTITIES
  0
POLYLINE
  5
41
330
1F
100
AcDbEntity
  8
Layer 1
 62
   179
420
  2301728
370
     9
100
AcDb2dPolyline
 66
     1
 10
0.0
 20
0.0
 30
0.0
  0
VERTEX
  5
42
330
41
100
AcDbEntity
  8
Layer 1
 62
   179
420
  2301728
370
     9
100
AcDbVertex
100
AcDb2dVertex
 10
3.00000568181819
 20
-3.125
 30
0.0
  0
VERTEX
  5
43
330
41
100
AcDbEntity
  8
Layer 1
 62
   179
420
  2301728
370
     9
100
AcDbVertex
100
AcDb2dVertex
 10
0.9999943181818354
 20
-3.125
 30
0.0
  0
VERTEX
  5
44
330
41
100
AcDbEntity
  8
Layer 1
 62
   179
420
  2301728
370
     9
100
AcDbVertex
100
AcDb2dVertex
 10
0.9999943181818354
 20
-1.125
 30
0.0
  0
VERTEX
  5
45
330
41
100
AcDbEntity
  8
Layer 1
 62
   179
420
  2301728
370
     9
100
AcDbVertex
100
AcDb2dVertex
 10
3.00000568181819
 20
-1.125
 30
0.0
  0
VERTEX
  5
46
330
41
100
AcDbEntity
  8
Layer 1
 62
   179
420
  2301728
370
     9
100
AcDbVertex
100
AcDb2dVertex
 10
3.00000568181819
 20
-3.125
 30
0.0
  0
SEQEND
  5
47
330
41
100
AcDbEntity
  8
Layer 1
 62
   179
420
  2301728
370
     9
  0
POLYLINE
  5
48
330
1F
100
AcDbEntity
  8
Layer 1
 62
   179
420
  2301728
370
     9
100
AcDb2dPolyline
 66
     1
 10
0.0
 20
0.0
 30
0.0
  0
VERTEX
  5
49
330
48
100
AcDbEntity
  8
Layer 1
 62
   179
420
  2301728
370
     9
100
AcDbVertex
100
AcDb2dVertex
 10
2.155333991374037
 20
-2.455030846150129
 30
0.0
  0
VERTEX
  5
4A
330
48
100
AcDbEntity
  8
Layer 1
 62
   179
420
  2301728
370
     9
100
AcDbVertex
100
AcDb2dVertex
 10
1.834176294129874
 20
-2.455030846150129
 30
0.0
  0
VERTEX
  5
4B
330
48
100
AcDbEntity
  8
Layer 1
 62
   179
420
  2301728
370
     9
100
AcDbVertex
100
AcDb2dVertex
 10
1.777704269513783
 20
-2.698593395066849
 30
0.0
  0
VERTEX
  5
4C
330
48
100
AcDbEntity
  8
Layer 1
 62
   179
420
  2301728
370
     9
100
AcDbVertex
100
AcDb2dVertex
 10
1.467036286765733
 20
-2.698593395066849
 30
0.0
  0
VERTEX
  5
4D
330
48
100
AcDbEntity
  8
Layer 1
 62
   179
420
  2301728
370
     9
100
AcDbVertex
100
AcDb2dVertex
 10
1.816501843677492
 20
-1.551406604933151
 30
0.0
  0
VERTEX
  5
4E
330
48
100
AcDbEntity
  8
Layer 1
 62
   179
420
  2301728
370
     9
100
AcDbVertex
100
AcDb2dVertex
 10
2.183498156322508
 20
-1.551406604933151
 30
0.0
  0
VERTEX
  5
4F
330
48
100
AcDbEntity
  8
Layer 1
 62
   179
420
  2301728
370
     9
100
AcDbVertex
100
AcDb2dVertex
 10
2.532963713234292
 20
-2.698593395066849
 30
0.0
  0
VERTEX
  5
50
330
48
100
AcDbEntity
  8
Layer 1
 62
   179
420
  2301728
370
     9
100
AcDbVertex
100
AcDb2dVertex
 10
2.211806015990128
 20
-2.698593395066849
 30
0.0
  0
VERTEX
  5
51
330
48
100
AcDbEntity
  8
Layer 1
 62
   179
420
  2301728
370
     9
100
AcDbVertex
100
AcDb2dVertex
 10
2.155333991374037
 20
-2.455030846150129
 30
0.0
  0
SEQEND
  5
52
330
48
100
AcDbEntity
  8
Layer 1
 62
   179
420
  2301728
370
     9
  0
SPLINE
  5
53
330
1F
100
AcDbEntity
  8
Layer 1
 62
   179
420
  2301728
370
     9
100
AcDbSpline
210
0.0
220
0.0
230
1.0
 70
    11
 71
     3
 72
    23
 73
    19
 74
     0
 42
0.0000000001
 43
0.0000000001
 12
1.0
 22
0.0
 32
0.0
 13
1.0
 23
0.0
 33
0.0
 40
0.0
 40
0.0
 40
0.0
 40
0.0
 40
1.0
 40
1.0
 40
1.0
 40
2.0
 40
2.0
 40
2.0
 40
3.0
 40
3.0
 40
3.0
 40
4.0
 40
4.0
 40
4.0
 40
5.0
 40
5.0
 40
5.0
 40
6.0
 40
6.0
 40
6.0
 40
6.0
 10
2.100586303387445
 20
-2.22037736981915
 30
0.0
 10
2.100586303387445
 20
-2.22037736981915
 30
0.0
 10
2.081187516305565
 20
-2.140914190143083
 30
0.0
 10
2.081187516305565
 20
-2.140914190143083
 30
0.0
 10
2.053023351357095
 20
-2.031418814169948
 30
0.0
 10
2.024715491689499
 20
-1.892034936618744
 30
0.0
 10
1.996551326741004
 20
-1.777294703397489
 30
0.0
 10
1.996551326741004
 20
-1.777294703397489
 30
0.0
 10
1.989366590784761
 20
-1.777294703397489
 30
0.0
 10
1.989366590784761
 20
-1.777294703397489
 30
0.0
 10
1.964794793814437
 20
-1.893759273248267
 30
0.0
 10
1.936486934146817
 20
-2.031418814169948
 30
0.0
 10
1.908179074479196
 20
-2.140914190143083
 30
0.0
 10
1.908179074479196
 20
-2.140914190143083
 30
0.0
 10
1.888780287397342
 20
-2.22037736981915
 30
0.0
 10
1.888780287397342
 20
-2.22037736981915
 30
0.0
 10
1.888780287397342
 20
-2.22037736981915
 30
0.0
 10
2.100586303387445
 20
-2.22037736981915
 30
0.0
 10
2.100586303387445
 20
-2.22037736981915
 30
0.0
  0
POLYLINE
  5
54
330
1F
100
AcDbEntity
  8
Layer 1
 62
   179
420
  2301728
370
     9
100
AcDb2dPolyline
 66
     1
 10
0.0
 20
0.0
 30
0.0
  0
VERTEX
  5
55
330
54
100
AcDbEntity
  8
Layer 1
 62
   179
420
  2301728
370
     9
100
AcDbVertex
100
AcDb2dVertex
 10
5.250005681818164
 20
-3.125
 30
0.0
  0
VERTEX
  5
56
330
54
100
AcDbEntity
  8
Layer 1
 62
   179
420
  2301728
370
     9
100
AcDbVertex
100
AcDb2dVertex
 10
3.249994318181835
 20
-3.125
 30
0.0
  0
VERTEX
  5
57
330
54
100
AcDbEntity
  8
Layer 1
 62
   179
420
  2301728
370
     9
100
AcDbVertex
100
AcDb2dVertex
 10
3.249994318181835
 20
-1.125
 30
0.0
  0
VERTEX
  5
58
330
54
100
AcDbEntity
  8
Layer 1
 62
   179
420
  2301728
370
     9
100
AcDbVertex
100
AcDb2dVertex
 10
5.250005681818164
 20
-1.125
 30
0.0
  0
VERTEX
  5
59
330
54
100
AcDbEntity
  8
Layer 1
 62
   179
420
  2301728
370
     9
100
AcDbVertex
100
AcDb2dVertex
 10
5.250005681818164
 20
-3.125
 30
0.0
  0
SEQEND
  5
5A
330
54
100
AcDbEntity
  8
Layer 1
 62
   179
420
  2301728
370
     9
  0
POLYLINE
  5
5B
330
1F
100
AcDbEntity
  8
Layer 1
 62
   179
420
  2301728
370
     9
100
AcDb2dPolyline
 66
     1
 10
0.0
 20
0.0
 30
0.0
  0
VERTEX
  5
5C
330
5B
100
AcDbEntity
  8
Layer 1
 62
   179
420
  2301728
370
     9
100
AcDbVertex
100
AcDb2dVertex
 10
7.500005681818189
 20
-3.125
 30
0.0
  0
VERTEX
  5
5D
330
5B
100
AcDbEntity
  8
Layer 1
 62
   179
420
  2301728
370
     9
100
AcDbVertex
100
AcDb2dVertex
 10
5.499994318181835
 20
-3.125
 30
0.0
  0
VERTEX
  5
5E
330
5B
100
AcDbEntity
  8
Layer 1
 62
   179
420
  2301728
370
     9
100
AcDbVertex
100
AcDb2dVertex
 10
5.499994318181835
 20
-1.125
 30
0.0
  0
VERTEX
  5
5F
330
5B
100
AcDbEntity
  8
Layer 1
 62
   179
420
  2301728
370
     9
100
AcDbVertex
100
AcDb2dVertex
 10
7.500005681818189
 20
-1.125
 30
0.0
  0
VERTEX
  5
60
330
5B
100
AcDbEntity
  8
Layer 1
 62
   179
420
  2301728
370
     9
100
AcDbVertex
100
AcDb2dVertex
 10
7.500005681818189
 20
-3.125
 30
0.0
  0
SEQEND
  5
61
330
5B
100
AcDbEntity
  8
Layer 1
 62
   179
420
  2301728
370
     9
  0
POLYLINE
  5
62
330
1F
100
AcDbEntity
  8
Layer 1
 62
   179
420
  2301728
370
     9
100
AcDb2dPolyline
 66
     1
 10
0.0
 20
0.0
 30
0.0
  0
VERTEX
  5
63
330
62
100
AcDbEntity
  8
Layer 1
 62
   179
420
  2301728
370
     9
100
AcDbVertex
100
AcDb2dVertex
 10
3.00000568181819
 20
-5.364423660152548
 30
0.0
  0
VERTEX
  5
64
330
62
100
AcDbEntity
  8
Layer 1
 62
   179
420
  2301728
370
     9
100
AcDbVertex
100
AcDb2dVertex
 10
0.9999943181818354
 20
-5.364423660152548
 30
0.0
  0
VERTEX
  5
65
330
62
100
AcDbEntity
  8
Layer 1
 62
   179
420
  2301728
370
     9
100
AcDbVertex
100
AcDb2dVertex
 10
0.9999943181818354
 20
-3.364423660152549
 30
0.0
  0
VERTEX
  5
66
330
62
100
AcDbEntity
  8
Layer 1
 62
   179
420
  2301728
370
     9
100
AcDbVertex
100
AcDb2dVertex
 10
3.00000568181819
 20
-3.364423660152549
 30
0.0
  0
VERTEX
  5
67
330
62
100
AcDbEntity
  8
Layer 1
 62
   179
420
  2301728
370
     9
100
AcDbVertex
100
AcDb2dVertex
 10
3.00000568181819
 20
-5.364423660152548
 30
0.0
  0
SEQEND
  5
68
330
62
100
AcDbEntity
  8
Layer 1
 62
   179
420
  2301728
370
     9
  0
POLYLINE
  5
69
330
1F
100
AcDbEntity
  8
Layer 1
 62
   179
420
  2301728
370
     9
100
AcDb2dPolyline
 66
     1
 10
0.0
 20
0.0
 30
0.0
  0
VERTEX
  5
6A
330
69
100
AcDbEntity
  8
Layer 1
 62
   179
420
  2301728
370
     9
100
AcDbVertex
100
AcDb2dVertex
 10
5.250005681818164
 20
-5.364423660152548
 30
0.0
  0
VERTEX
  5
6B
330
69
100
AcDbEntity
  8
Layer 1
 62
   179
420
  2301728
370
     9
100
AcDbVertex
100
AcDb2dVertex
 10
3.24999431818181
 20
-5.364423660152548
 30
0.0
  0
VERTEX
  5
6C
330
69
100
AcDbEntity
  8
Layer 1
 62
   179
420
  2301728
370
     9
100
AcDbVertex
100
AcDb2dVertex
 10
3.24999431818181
 20
-3.364423660152549
 30
0.0
  0
VERTEX
  5
6D
330
69
100
AcDbEntity
  8
Layer 1
 62
   179
420
  2301728
370
     9
100
AcDbVertex
100
AcDb2dVertex
 10
5.250005681818164
 20
-3.364423660152549
 30
0.0
  0
VERTEX
  5
6E
330
69
100
AcDbEntity
  8
Layer 1
 62
   179
420
  2301728
370
     9
100
AcDbVertex
100
AcDb2dVertex
 10
5.250005681818164
 20
-5.364423660152548
 30
0.0
  0
SEQEND
  5
6F
330
69
100
AcDbEntity
  8
Layer 1
 62
   179
420
  2301728
370
     9
  0
POLYLINE
  5
70
330
1F
100
AcDbEntity
  8
Layer 1
 62
   179
420
  2301728
370
     9
100
AcDb2dPolyline
 66
     1
 10
0.0
 20
0.0
 30
0.0
  0
VERTEX
  5
71
330
70
100
AcDbEntity
  8
Layer 1
 62
   179
420
  2301728
370
     9
100
AcDbVertex
100
AcDb2dVertex
 10
7.500005681818164
 20
-5.375000000000025
 30
0.0
  0
VERTEX
  5
72
330
70
100
AcDbEntity
  8
Layer 1
 62
   179
420
  2301728
370
     9
100
AcDbVertex
100
AcDb2dVertex
 10
5.499994318181835
 20
-5.375000000000025
 30
0.0
  0
VERTEX
  5
73
330
70
100
AcDbEntity
  8
Layer 1
 62
   179
420
  2301728
370
     9
100
AcDbVertex
100
AcDb2dVertex
 10
5.499994318181835
 20
-3.375000000000025
 30
0.0
  0
VERTEX
  5
74
330
70
100
AcDbEntity
  8
Layer 1
 62
   179
420
  2301728
370
     9
100
AcDbVertex
100
AcDb2dVertex
 10
7.500005681818164
 20
-3.375000000000025
 30
0.0
  0
VERTEX
  5
75
330
70
100
AcDbEntity
  8
Layer 1
 62
   179
420
  2301728
370
     9
100
AcDbVertex
100
AcDb2dVertex
 10
7.500005681818164
 20
-5.375000000000025
 30
0.0
  0
SEQEND
  5
76
330
70
100
AcDbEntity
  8
Layer 1
 62
   179
420
  2301728
370
     9
  0
POLYLINE
  5
77
330
1F
100
AcDbEntity
  8
Layer 1
 62
   179
420
  2301728
370
     9
100
AcDb2dPolyline
 66
     1
 10
0.0
 20
0.0
 30
0.0
  0
VERTEX
  5
78
330
77
100
AcDbEntity
  8
Layer 1
 62
   179
420
  2301728
370
     9
100
AcDbVertex
100
AcDb2dVertex
 10
3.00000568181819
 20
-7.639172171370596
 30
0.0
  0
VERTEX
  5
79
330
77
100
AcDbEntity
  8
Layer 1
 62
   179
420
  2301728
370
     9
100
AcDbVertex
100
AcDb2dVertex
 10
0.9999943181818354
 20
-7.639172171370596
 30
0.0
  0
VERTEX
  5
7A
330
77
100
AcDbEntity
  8
Layer 1
 62
   179
420
  2301728
370
     9
100
AcDbVertex
100
AcDb2dVertex
 10
0.9999943181818354
 20
-5.639172171370597
 30
0.0
  0
VERTEX
  5
7B
330
77
100
AcDbEntity
  8
Layer 1
 62
   179
420
  2301728
370
     9
100
AcDbVertex
100
AcDb2dVertex
 10
3.00000568181819
 20
-5.639172171370597
 30
0.0
  0
VERTEX
  5
7C
330
77
100
AcDbEntity
  8
Layer 1
 62
   179
420
  2301728
370
     9
100
AcDbVertex
100
AcDb2dVertex
 10
3.00000568181819
 20
-7.639172171370596
 30
0.0
  0
SEQEND
  5
7D
330
77
100
AcDbEntity
  8
Layer 1
 62
   179
420
  2301728
370
     9
  0
POLYLINE
  5
7E
330
1F
100
AcDbEntity
  8
Layer 1
 62
   179
420
  2301728
370
     9
100
AcDb2dPolyline
 66
     1
 10
0.0
 20
0.0
 30
0.0
  0
VERTEX
  5
7F
330
7E
100
AcDbEntity
  8
Layer 1
 62
   179
420
  2301728
370
     9
100
AcDbVertex
100
AcDb2dVertex
 10
5.250005681818164
 20
-7.625
 30
0.0
  0
VERTEX
  5
80
330
7E
100
AcDbEntity
  8
Layer 1
 62
   179
420
  2301728
370
     9
100
AcDbVertex
100
AcDb2dVertex
 10
3.24999431818181
 20
-7.625
 30
0.0
  0
VERTEX
  5
81
330
7E
100
AcDbEntity
  8
Layer 1
 62
   179
420
  2301728
370
     9
100
AcDbVertex
100
AcDb2dVertex
 10
3.24999431818181
 20
-5.625
 30
0.0
  0
VERTEX
  5
82
330
7E
100
AcDbEntity
  8
Layer 1
 62
   179
420
  2301728
370
     9
100
AcDbVertex
100
AcDb2dVertex
 10
5.250005681818164
 20
-5.625
 30
0.0
  0
VERTEX
  5
83
330
7E
100
AcDbEntity
  8
Layer 1
 62
   179
420
  2301728
370
     9
100
AcDbVertex
100
AcDb2dVertex
 10
5.250005681818164
 20
-7.625
 30
0.0
  0
SEQEND
  5
84
330
7E
100
AcDbEntity
  8
Layer 1
 62
   179
420
  2301728
370
     9
  0
POLYLINE
  5
85
330
1F
100
AcDbEntity
  8
Layer 1
 62
   179
420
  2301728
370
     9
100
AcDb2dPolyline
 66
     1
 10
0.0
 20
0.0
 30
0.0
  0
VERTEX
  5
86
330
85
100
AcDbEntity
  8
Layer 1
 62
   179
420
  2301728
370
     9
100
AcDbVertex
100
AcDb2dVertex
 10
7.500005681818164
 20
-7.625
 30
0.0
  0
VERTEX
  5
87
330
85
100
AcDbEntity
  8
Layer 1
 62
   179
420
  2301728
370
     9
100
AcDbVertex
100
AcDb2dVertex
 10
5.49999431818181
 20
-7.625
 30
0.0
  0
VERTEX
  5
88
330
85
100
AcDbEntity
  8
Layer 1
 62
   179
420
  2301728
370
     9
100
AcDbVertex
100
AcDb2dVertex
 10
5.49999431818181
 20
-5.625
 30
0.0
  0
VERTEX
  5
89
330
85
100
AcDbEntity
  8
Layer 1
 62
   179
420
  2301728
370
     9
100
AcDbVertex
100
AcDb2dVertex
 10
7.500005681818164
 20
-5.625
 30
0.0
  0
VERTEX
  5
8A
330
85
100
AcDbEntity
  8
Layer 1
 62
   179
420
  2301728
370
     9
100
AcDbVertex
100
AcDb2dVertex
 10
7.500005681818164
 20
-7.625
 30
0.0
  0
SEQEND
  5
8B
330
85
100
AcDbEntity
  8
Layer 1
 62
   179
420
  2301728
370
     9
  0
POLYLINE
  5
8C
330
1F
100
AcDbEntity
  8
Layer 1
 62
   179
420
  2301728
370
     9
100
AcDb2dPolyline
 66
     1
 10
0.0
 20
0.0
 30
0.0
  0
VERTEX
  5
8D
330
8C
100
AcDbEntity
  8
Layer 1
 62
   179
420
  2301728
370
     9
100
AcDbVertex
100
AcDb2dVertex
 10
3.000005681818164
 20
-9.89138005179115
 30
0.0
  0
VERTEX
  5
8E
330
8C
100
AcDbEntity
  8
Layer 1
 62
   179
420
  2301728
370
     9
100
AcDbVertex
100
AcDb2dVertex
 10
0.9999943181818354
 20
-9.89138005179115
 30
0.0
  0
VERTEX
  5
8F
330
8C
100
AcDbEntity
  8
Layer 1
 62
   179
420
  2301728
370
     9
100
AcDbVertex
100
AcDb2dVertex
 10
0.9999943181818354
 20
-7.891380051791152
 30
0.0
  0
VERTEX
  5
90
330
8C
100
AcDbEntity
  8
Layer 1
 62
   179
420
  2301728
370
     9
100
AcDbVertex
100
AcDb2dVertex
 10
3.000005681818164
 20
-7.891380051791152
 30
0.0
  0
VERTEX
  5
91
330
8C
100
AcDbEntity
  8
Layer 1
 62
   179
420
  2301728
370
     9
100
AcDbVertex
100
AcDb2dVertex
 10
3.000005681818164
 20
-9.89138005179115
 30
0.0
  0
SEQEND
  5
92
330
8C
100
AcDbEntity
  8
Layer 1
 62
   179
420
  2301728
370
     9
  0
POLYLINE
  5
93
330
1F
100
AcDbEntity
  8
Layer 1
 62
   179
420
  2301728
370
     9
100
AcDb2dPolyline
 66
     1
 10
0.0
 20
0.0
 30
0.0
  0
VERTEX
  5
94
330
93
100
AcDbEntity
  8
Layer 1
 62
   179
420
  2301728
370
     9
100
AcDbVertex
100
AcDb2dVertex
 10
5.250005681818189
 20
-9.89138005179115
 30
0.0
  0
VERTEX
  5
95
330
93
100
AcDbEntity
  8
Layer 1
 62
   179
420
  2301728
370
     9
100
AcDbVertex
100
AcDb2dVertex
 10
3.249994318181835
 20
-9.89138005179115
 30
0.0
  0
VERTEX
  5
96
330
93
100
AcDbEntity
  8
Layer 1
 62
   179
420
  2301728
370
     9
100
AcDbVertex
100
AcDb2dVertex
 10
3.249994318181835
 20
-7.891380051791152
 30
0.0
  0
VERTEX
  5
97
330
93
100
AcDbEntity
  8
Layer 1
 62
   179
420
  2301728
370
     9
100
AcDbVertex
100
AcDb2dVertex
 10
5.250005681818189
 20
-7.891380051791152
 30
0.0
  0
VERTEX
  5
98
330
93
100
AcDbEntity
  8
Layer 1
 62
   179
420
  2301728
370
     9
100
AcDbVertex
100
AcDb2dVertex
 10
5.250005681818189
 20
-9.89138005179115
 30
0.0
  0
SEQEND
  5
99
330
93
100
AcDbEntity
  8
Layer 1
 62
   179
420
  2301728
370
     9
  0
POLYLINE
  5
9A
330
1F
100
AcDbEntity
  8
Layer 1
 62
   179
420
  2301728
370
     9
100
AcDb2dPolyline
 66
     1
 10
0.0
 20
0.0
 30
0.0
  0
VERTEX
  5
9B
330
9A
100
AcDbEntity
  8
Layer 1
 62
   179
420
  2301728
370
     9
100
AcDbVertex
100
AcDb2dVertex
 10
7.500005681818164
 20
-9.875
 30
0.0
  0
VERTEX
  5
9C
330
9A
100
AcDbEntity
  8
Layer 1
 62
   179
420
  2301728
370
     9
100
AcDbVertex
100
AcDb2dVertex
 10
5.49999431818181
 20
-9.875
 30
0.0
  0
VERTEX
  5
9D
330
9A
100
AcDbEntity
  8
Layer 1
 62
   179
420
  2301728
370
     9
100
AcDbVertex
100
AcDb2dVertex
 10
5.49999431818181
 20
-7.875
 30
0.0
  0
VERTEX
  5
9E
330
9A
100
AcDbEntity
  8
Layer 1
 62
   179
420
  2301728
370
     9
100
AcDbVertex
100
AcDb2dVertex
 10
7.500005681818164
 20
-7.875
 30
0.0
  0
VERTEX
  5
9F
330
9A
100
AcDbEntity
  8
Layer 1
 62
   179
420
  2301728
370
     9
100
AcDbVertex
100
AcDb2dVertex
 10
7.500005681818164
 20
-9.875
 30
0.0
  0
SEQEND
  5
A0
330
9A
100
AcDbEntity
  8
Layer 1
 62
   179
420
  2301728
370
     9
  0
POLYLINE
  5
A1
330
1F
100
AcDbEntity
  8
Layer 1
 62
   179
420
  2301728
370
     9
100
AcDb2dPolyline
 66
     1
 10
0.0
 20
0.0
 30
0.0
  0
VERTEX
  5
A2
330
A1
100
AcDbEntity
  8
Layer 1
 62
   179
420
  2301728
370
     9
100
AcDbVertex
100
AcDb2dVertex
 10
11.80556123737374
 20
-3.125
 30
0.0
  0
VERTEX
  5
A3
330
A1
100
AcDbEntity
  8
Layer 1
 62
   179
420
  2301728
370
     9
100
AcDbVertex
100
AcDb2dVertex
 10
9.805549873737391
 20
-3.125
 30
0.0
  0
VERTEX
  5
A4
330
A1
100
AcDbEntity
  8
Layer 1
 62
   179
420
  2301728
370
     9
100
AcDbVertex
100
AcDb2dVertex
 10
9.805549873737391
 20
-1.125
 30
0.0
  0
VERTEX
  5
A5
330
A1
100
AcDbEntity
  8
Layer 1
 62
   179
420
  2301728
370
     9
100
AcDbVertex
100
AcDb2dVertex
 10
11.80556123737374
 20
-1.125
 30
0.0
  0
VERTEX
  5
A6
330
A1
100
AcDbEntity
  8
Layer 1
 62
   179
420
  2301728
370
     9
100
AcDbVertex
100
AcDb2dVertex
 10
11.80556123737374
 20
-3.125
 30
0.0
  0
SEQEND
  5
A7
330
A1
100
AcDbEntity
  8
Layer 1
 62
   179
420
  2301728
370
     9
  0
POLYLINE
  5
A8
330
1F
100
AcDbEntity
  8
Layer 1
 62
   179
420
  2301728
370
     9
100
AcDb2dPolyline
 66
     1
 10
0.0
 20
0.0
 30
0.0
  0
VERTEX
  5
A9
330
A8
100
AcDbEntity
  8
Layer 1
 62
   179
420
  2301728
370
     9
100
AcDbVertex
100
AcDb2dVertex
 10
14.11805839646462
 20
-3.125
 30
0.0
  0
VERTEX
  5
AA
330
A8
100
AcDbEntity
  8
Layer 1
 62
   179
420
  2301728
370
     9
100
AcDbVertex
100
AcDb2dVertex
 10
12.1180470328283
 20
-3.125
 30
0.0
  0
VERTEX
  5
AB
330
A8
100
AcDbEntity
  8
Layer 1
 62
   179
420
  2301728
370
     9
100
AcDbVertex
100
AcDb2dVertex
 10
12.1180470328283
 20
-1.125
 30
0.0
  0
VERTEX
  5
AC
330
A8
100
AcDbEntity
  8
Layer 1
 62
   179
420
  2301728
370
     9
100
AcDbVertex
100
AcDb2dVertex
 10
14.11805839646462
 20
-1.125
 30
0.0
  0
VERTEX
  5
AD
330
A8
100
AcDbEntity
  8
Layer 1
 62
   179
420
  2301728
370
     9
100
AcDbVertex
100
AcDb2dVertex
 10
14.11805839646462
 20
-3.125
 30
0.0
  0
SEQEND
  5
AE
330
A8
100
AcDbEntity
  8
Layer 1
 62
   179
420
  2301728
370
     9
  0
POLYLINE
  5
AF
330
1F
100
AcDbEntity
  8
Layer 1
 62
   179
420
  2301728
370
     9
100
AcDb2dPolyline
 66
     1
 10
0.0
 20
0.0
 30
0.0
  0
VERTEX
  5
B0
330
AF
100
AcDbEntity
  8
Layer 1
 62
   179
420
  2301728
370
     9
100
AcDbVertex
100
AcDb2dVertex
 10
16.30556123737372
 20
-3.125
 30
0.0
  0
VERTEX
  5
B1
330
AF
100
AcDbEntity
  8
Layer 1
 62
   179
420
  2301728
370
     9
100
AcDbVertex
100
AcDb2dVertex
 10
14.30554987373736
 20
-3.125
 30
0.0
  0
VERTEX
  5
B2
330
AF
100
AcDbEntity
  8
Layer 1
 62
   179
420
  2301728
370
     9
100
AcDbVertex
100
AcDb2dVertex
 10
14.30554987373736
 20
-1.125
 30
0.0
  0
VERTEX
  5
B3
330
AF
100
AcDbEntity
  8
Layer 1
 62
   179
420
  2301728
370
     9
100
AcDbVertex
100
AcDb2dVertex
 10
16.30556123737372
 20
-1.125
 30
0.0
  0
VERTEX
  5
B4
330
AF
100
AcDbEntity
  8
Layer 1
 62
   179
420
  2301728
370
     9
100
AcDbVertex
100
AcDb2dVertex
 10
16.30556123737372
 20
-3.125
 30
0.0
  0
SEQEND
  5
B5
330
AF
100
AcDbEntity
  8
Layer 1
 62
   179
420
  2301728
370
     9
  0
POLYLINE
  5
B6
330
1F
100
AcDbEntity
  8
Layer 1
 62
   179
420
  2301728
370
     9
100
AcDb2dPolyline
 66
     1
 10
0.0
 20
0.0
 30
0.0
  0
VERTEX
  5
B7
330
B6
100
AcDbEntity
  8
Layer 1
 62
   179
420
  2301728
370
     9
100
AcDbVertex
100
AcDb2dVertex
 10
11.80556123737374
 20
-5.375000000000025
 30
0.0
  0
VERTEX
  5
B8
330
B6
100
AcDbEntity
  8
Layer 1
 62
   179
420
  2301728
370
     9
100
AcDbVertex
100
AcDb2dVertex
 10
9.805549873737391
 20
-5.375000000000025
 30
0.0
  0
VERTEX
  5
B9
330
B6
100
AcDbEntity
  8
Layer 1
 62
   179
420
  2301728
370
     9
100
AcDbVertex
100
AcDb2dVertex
 10
9.805549873737391
 20
-3.375000000000025
 30
0.0
  0
VERTEX
  5
BA
330
B6
100
AcDbEntity
  8
Layer 1
 62
   179
420
  2301728
370
     9
100
AcDbVertex
100
AcDb2dVertex
 10
11.80556123737374
 20
-3.375000000000025
 30
0.0
  0
VERTEX
  5
BB
330
B6
100
AcDbEntity
  8
Layer 1
 62
   179
420
  2301728
370
     9
100
AcDbVertex
100
AcDb2dVertex
 10
11.80556123737374
 20
-5.375000000000025
 30
0.0
  0
SEQEND
  5
BC
330
B6
100
AcDbEntity
  8
Layer 1
 62
   179
420
  2301728
370
     9
  0
POLYLINE
  5
BD
330
1F
100
AcDbEntity
  8
Layer 1
 62
   179
420
  2301728
370
     9
100
AcDb2dPolyline
 66
     1
 10
0.0
 20
0.0
 30
0.0
  0
VERTEX
  5
BE
330
BD
100
AcDbEntity
  8
Layer 1
 62
   179
420
  2301728
370
     9
100
AcDbVertex
100
AcDb2dVertex
 10
14.05556123737374
 20
-5.375000000000025
 30
0.0
  0
VERTEX
  5
BF
330
BD
100
AcDbEntity
  8
Layer 1
 62
   179
420
  2301728
370
     9
100
AcDbVertex
100
AcDb2dVertex
 10
12.05554987373739
 20
-5.375000000000025
 30
0.0
  0
VERTEX
  5
C0
330
BD
100
AcDbEntity
  8
Layer 1
 62
   179
420
  2301728
370
     9
100
AcDbVertex
100
AcDb2dVertex
 10
12.05554987373739
 20
-3.375000000000025
 30
0.0
  0
VERTEX
  5
C1
330
BD
100
AcDbEntity
  8
Layer 1
 62
   179
420
  2301728
370
     9
100
AcDbVertex
100
AcDb2dVertex
 10
14.05556123737374
 20
-3.375000000000025
 30
0.0
  0
VERTEX
  5
C2
330
BD
100
AcDbEntity
  8
Layer 1
 62
   179
420
  2301728
370
     9
100
AcDbVertex
100
AcDb2dVertex
 10
14.05556123737374
 20
-5.375000000000025
 30
0.0
  0
SEQEND
  5
C3
330
BD
100
AcDbEntity
  8
Layer 1
 62
   179
420
  2301728
370
     9
  0
POLYLINE
  5
C4
330
1F
100
AcDbEntity
  8
Layer 1
 62
   179
420
  2301728
370
     9
100
AcDb2dPolyline
 66
     1
 10
0.0
 20
0.0
 30
0.0
  0
VERTEX
  5
C5
330
C4
100
AcDbEntity
  8
Layer 1
 62
   179
420
  2301728
370
     9
100
AcDbVertex
100
AcDb2dVertex
 10
16.28530518728957
 20
-5.375000000000025
 30
0.0
  0
VERTEX
  5
C6
330
C4
100
AcDbEntity
  8
Layer 1
 62
   179
420
  2301728
370
     9
100
AcDbVertex
100
AcDb2dVertex
 10
14.28529382365324
 20
-5.375000000000025
 30
0.0
  0
VERTEX
  5
C7
330
C4
100
AcDbEntity
  8
Layer 1
 62
   179
420
  2301728
370
     9
100
AcDbVertex
100
AcDb2dVertex
 10
14.28529382365324
 20
-3.375000000000025
 30
0.0
  0
VERTEX
  5
C8
330
C4
100
AcDbEntity
  8
Layer 1
 62
   179
420
  2301728
370
     9
100
AcDbVertex
100
AcDb2dVertex
 10
16.28530518728957
 20
-3.375000000000025
 30
0.0
  0
VERTEX
  5
C9
330
C4
100
AcDbEntity
  8
Layer 1
 62
   179
420
  2301728
370
     9
100
AcDbVertex
100
AcDb2dVertex
 10
16.28530518728957
 20
-5.375000000000025
 30
0.0
  0
SEQEND
  5
CA
330
C4
100
AcDbEntity
  8
Layer 1
 62
   179
420
  2301728
370
     9
  0
POLYLINE
  5
CB
330
1F
100
AcDbEntity
  8
Layer 1
 62
   179
420
  2301728
370
     9
100
AcDb2dPolyline
 66
     1
 10
0.0
 20
0.0
 30
0.0
  0
VERTEX
  5
CC
330
CB
100
AcDbEntity
  8
Layer 1
 62
   179
420
  2301728
370
     9
100
AcDbVertex
100
AcDb2dVertex
 10
11.80556123737374
 20
-7.639172171370596
 30
0.0
  0
VERTEX
  5
CD
330
CB
100
AcDbEntity
  8
Layer 1
 62
   179
420
  2301728
370
     9
100
AcDbVertex
100
AcDb2dVertex
 10
9.805549873737391
 20
-7.639172171370596
 30
0.0
  0
VERTEX
  5
CE
330
CB
100
AcDbEntity
  8
Layer 1
 62
   179
420
  2301728
370
     9
100
AcDbVertex
100
AcDb2dVertex
 10
9.805549873737391
 20
-5.639172171370597
 30
0.0
  0
VERTEX
  5
CF
330
CB
100
AcDbEntity
  8
Layer 1
 62
   179
420
  2301728
370
     9
100
AcDbVertex
100
AcDb2dVertex
 10
11.80556123737374
 20
-5.639172171370597
 30
0.0
  0
VERTEX
  5
D0
330
CB
100
AcDbEntity
  8
Layer 1
 62
   179
420
  2301728
370
     9
100
AcDbVertex
100
AcDb2dVertex
 10
11.80556123737374
 20
-7.639172171370596
 30
0.0
  0
SEQEND
  5
D1
330
CB
100
AcDbEntity
  8
Layer 1
 62
   179
420
  2301728
370
     9
  0
POLYLINE
  5
D2
330
1F
100
AcDbEntity
  8
Layer 1
 62
   179
420
  2301728
370
     9
100
AcDb2dPolyline
 66
     1
 10
0.0
 20
0.0
 30
0.0
  0
VERTEX
  5
D3
330
D2
100
AcDbEntity
  8
Layer 1
 62
   179
420
  2301728
370
     9
100
AcDbVertex
100
AcDb2dVertex
 10
14.05556123737374
 20
-7.625
 30
0.0
  0
VERTEX
  5
D4
330
D2
100
AcDbEntity
  8
Layer 1
 62
   179
420
  2301728
370
     9
100
AcDbVertex
100
AcDb2dVertex
 10
12.05554987373739
 20
-7.625
 30
0.0
  0
VERTEX
  5
D5
330
D2
100
AcDbEntity
  8
Layer 1
 62
   179
420
  2301728
370
     9
100
AcDbVertex
100
AcDb2dVertex
 10
12.05554987373739
 20
-5.625
 30
0.0
  0
VERTEX
  5
D6
330
D2
100
AcDbEntity
  8
Layer 1
 62
   179
420
  2301728
370
     9
100
AcDbVertex
100
AcDb2dVertex
 10
14.05556123737374
 20
-5.625
 30
0.0
  0
VERTEX
  5
D7
330
D2
100
AcDbEntity
  8
Layer 1
 62
   179
420
  2301728
370
     9
100
AcDbVertex
100
AcDb2dVertex
 10
14.05556123737374
 20
-7.625
 30
0.0
  0
SEQEND
  5
D8
330
D2
100
AcDbEntity
  8
Layer 1
 62
   179
420
  2301728
370
     9
  0
SPLINE
  5
D9
330
1F
100
AcDbEntity
  8
Layer 1
 62
   179
420
  2301728
370
     9
100
AcDbSpline
210
0.0
220
0.0
230
1.0
 70
    11
 71
     3
 72
    29
 73
    25
 74
     0
 42
0.0000000001
 43
0.0000000001
 12
1.0
 22
0.0
 32
0.0
 13
1.0
 23
0.0
 33
0.0
 40
0.0
 40
0.0
 40
0.0
 40
0.0
 40
1.0
 40
1.0
 40
1.0
 40
2.0
 40
2.0
 40
2.0
 40
3.0
 40
3.0
 40
3.0
 40
4.0
 40
4.0
 40
4.0
 40
5.0
 40
5.0
 40
5.0
 40
6.0
 40
6.0
 40
6.0
 40
7.0
 40
7.0
 40
7.0
 40
8.0
 40
8.0
 40
8.0
 40
8.0
 10
3.799948139700783
 20
-1.551406604933151
 30
0.0
 10
3.799948139700783
 20
-1.551406604933151
 30
0.0
 10
4.212926762465764
 20
-1.551406604933151
 30
0.0
 10
4.212926762465764
 20
-1.551406604933151
 30
0.0
 10
4.452896943404387
 20
-1.551406604933151
 30
0.0
 10
4.647028508942109
 20
-1.611399150167788
 30
0.0
 10
4.647028508942109
 20
-1.837287248632176
 30
0.0
 10
4.647028508942109
 20
-1.936149215390098
 30
0.0
 10
4.590556484326018
 20
-2.04909326462228
 30
0.0
 10
4.456489311382484
 20
-2.084370318167468
 30
0.0
 10
4.456489311382484
 20
-2.084370318167468
 30
0.0
 10
4.456489311382484
 20
-2.091483206764135
 30
0.0
 10
4.456489311382484
 20
-2.091483206764135
 30
0.0
 10
4.618864343993638
 20
-2.123239739690752
 30
0.0
 10
4.700051860299204
 20
-2.208019623974438
 30
0.0
 10
4.700051860299204
 20
-2.359761247370367
 30
0.0
 10
4.700051860299204
 20
-2.596139060330743
 30
0.0
 10
4.495286885546218
 20
-2.698593395066849
 30
0.0
 10
4.248275663370476
 20
-2.698593395066849
 30
0.0
 10
4.248275663370476
 20
-2.698593395066849
 30
0.0
 10
3.799948139700783
 20
-2.698593395066849
 30
0.0
 10
3.799948139700783
 20
-2.698593395066849
 30
0.0
 10
3.799948139700783
 20
-2.698593395066849
 30
0.0
 10
3.799948139700783
 20
-1.551406604933151
 30
0.0
 10
3.799948139700783
 20
-1.551406604933151
 30
0.0
  0
SPLINE
  5
DA
330
1F
100
AcDbEntity
  8
Layer 1
 62
   179
420
  2301728
370
     9
100
AcDbSpline
210
0.0
220
0.0
230
1.0
 70
    11
 71
     3
 72
    20
 73
    16
 74
     0
 42
0.0000000001
 43
0.0000000001
 12
1.0
 22
0.0
 32
0.0
 13
1.0
 23
0.0
 33
0.0
 40
0.0
 40
0.0
 40
0.0
 40
0.0
 40
1.0
 40
1.0
 40
1.0
 40
2.0
 40
2.0
 40
2.0
 40
3.0
 40
3.0
 40
3.0
 40
4.0
 40
4.0
 40
4.0
 40
5.0
 40
5.0
 40
5.0
 40
5.0
 10
4.205885721228646
 20
-2.003182801861852
 30
0.0
 10
4.304747687986567
 20
-2.003182801861852
 30
0.0
 10
4.350586303387419
 20
-1.953823665842429
 30
0.0
 10
4.350586303387419
 20
-1.883197711392578
 30
0.0
 10
4.350586303387419
 20
-1.812643604302252
 30
0.0
 10
4.304747687986567
 20
-1.784407591994207
 30
0.0
 10
4.205885721228646
 20
-1.784407591994207
 30
0.0
 10
4.205885721228646
 20
-1.784407591994207
 30
0.0
 10
4.103575081211728
 20
-1.784407591994207
 30
0.0
 10
4.103575081211728
 20
-1.784407591994207
 30
0.0
 10
4.103575081211728
 20
-1.784407591994207
 30
0.0
 10
4.103575081211728
 20
-2.003182801861852
 30
0.0
 10
4.103575081211728
 20
-2.003182801861852
 30
0.0
 10
4.103575081211728
 20
-2.003182801861852
 30
0.0
 10
4.205885721228646
 20
-2.003182801861852
 30
0.0
 10
4.205885721228646
 20
-2.003182801861852
 30
0.0
  0
SPLINE
  5
DB
330
1F
100
AcDbEntity
  8
Layer 1
 62
   179
420
  2301728
370
     9
100
AcDbSpline
210
0.0
220
0.0
230
1.0
 70
    11
 71
     3
 72
    20
 73
    16
 74
     0
 42
0.0000000001
 43
0.0000000001
 12
1.0
 22
0.0
 32
0.0
 13
1.0
 23
0.0
 33
0.0
 40
0.0
 40
0.0
 40
0.0
 40
0.0
 40
1.0
 40
1.0
 40
1.0
 40
2.0
 40
2.0
 40
2.0
 40
3.0
 40
3.0
 40
3.0
 40
4.0
 40
4.0
 40
4.0
 40
5.0
 40
5.0
 40
5.0
 40
5.0
 10
4.227008844939999
 20
-2.465664255365394
 30
0.0
 10
4.346993935409324
 20
-2.465664255365394
 30
0.0
 10
4.403465960025389
 20
-2.419681945245391
 30
0.0
 10
4.403465960025389
 20
-2.33504575568083
 30
0.0
 10
4.403465960025389
 20
-2.250265871397144
 30
0.0
 10
4.346993935409324
 20
-2.215060665211556
 30
0.0
 10
4.227008844939999
 20
-2.215060665211556
 30
0.0
 10
4.227008844939999
 20
-2.215060665211556
 30
0.0
 10
4.103575081211728
 20
-2.215060665211556
 30
0.0
 10
4.103575081211728
 20
-2.215060665211556
 30
0.0
 10
4.103575081211728
 20
-2.215060665211556
 30
0.0
 10
4.103575081211728
 20
-2.465664255365394
 30
0.0
 10
4.103575081211728
 20
-2.465664255365394
 30
0.0
 10
4.103575081211728
 20
-2.465664255365394
 30
0.0
 10
4.227008844939999
 20
-2.465664255365394
 30
0.0
 10
4.227008844939999
 20
-2.465664255365394
 30
0.0
  0
SPLINE
  5
DC
330
1F
100
AcDbEntity
  8
Layer 1
 62
   179
420
  2301728
370
     9
100
AcDbSpline
210
0.0
220
0.0
230
1.0
 70
    11
 71
     3
 72
    35
 73
    31
 74
     0
 42
0.0000000001
 43
0.0000000001
 12
1.0
 22
0.0
 32
0.0
 13
1.0
 23
0.0
 33
0.0
 40
0.0
 40
0.0
 40
0.0
 40
0.0
 40
1.0
 40
1.0
 40
1.0
 40
2.0
 40
2.0
 40
2.0
 40
3.0
 40
3.0
 40
3.0
 40
4.0
 40
4.0
 40
4.0
 40
5.0
 40
5.0
 40
5.0
 40
6.0
 40
6.0
 40
6.0
 40
7.0
 40
7.0
 40
7.0
 40
8.0
 40
8.0
 40
8.0
 40
9.0
 40
9.0
 40
9.0
 40
10.0
 40
10.0
 40
10.0
 40
10.0
 10
6.598861966757972
 20
-1.530283481221798
 30
0.0
 10
6.743562548916745
 20
-1.530283481221798
 30
0.0
 10
6.867140007364191
 20
-1.600837588312124
 30
0.0
 10
6.948183828950631
 20
-1.682025104617689
 30
0.0
 10
6.948183828950631
 20
-1.682025104617689
 30
0.0
 10
6.782360123080505
 20
-1.869115628918343
 30
0.0
 10
6.782360123080505
 20
-1.869115628918343
 30
0.0
 10
6.725888098464414
 20
-1.819684645539395
 30
0.0
 10
6.676457115085415
 20
-1.791448633231299
 30
0.0
 10
6.602310640016968
 20
-1.791448633231299
 30
0.0
 10
6.464651099095312
 20
-1.791448633231299
 30
0.0
 10
6.348258376604134
 20
-1.91495424431917
 30
0.0
 10
6.348258376604134
 20
-2.123239739690752
 30
0.0
 10
6.348258376604134
 20
-2.338494428939839
 30
0.0
 10
6.447120343362055
 20
-2.458479519409151
 30
0.0
 10
6.595269598779851
 20
-2.458479519409151
 30
0.0
 10
6.683498156322558
 20
-2.458479519409151
 30
0.0
 10
6.747011222175741
 20
-2.419681945245391
 30
0.0
 10
6.79644220555474
 20
-2.366802288607447
 30
0.0
 10
6.79644220555474
 20
-2.366802288607447
 30
0.0
 10
6.962409606143991
 20
-2.550300444929955
 30
0.0
 10
6.962409606143991
 20
-2.550300444929955
 30
0.0
 10
6.865271976015568
 20
-2.663244494162136
 30
0.0
 10
6.732929139701506
 20
-2.719716518778202
 30
0.0
 10
6.591820925520854
 20
-2.719716518778202
 30
0.0
 10
6.291786351988068
 20
-2.719716518778202
 30
0.0
 10
6.037590393856084
 20
-2.525584953240481
 30
0.0
 10
6.037590393856084
 20
-2.133873148905978
 30
0.0
 10
6.037590393856084
 20
-1.749058691089469
 30
0.0
 10
6.302419761203307
 20
-1.530283481221798
 30
0.0
 10
6.598861966757972
 20
-1.530283481221798
 30
0.0
  0
SPLINE
  5
DD
330
1F
100
AcDbEntity
  8
Layer 1
 62
   179
420
  2301728
370
     9
100
AcDbSpline
210
0.0
220
0.0
230
1.0
 70
    11
 71
     3
 72
    20
 73
    16
 74
     0
 42
0.0000000001
 43
0.0000000001
 12
1.0
 22
0.0
 32
0.0
 13
1.0
 23
0.0
 33
0.0
 40
0.0
 40
0.0
 40
0.0
 40
0.0
 40
1.0
 40
1.0
 40
1.0
 40
2.0
 40
2.0
 40
2.0
 40
3.0
 40
3.0
 40
3.0
 40
4.0
 40
4.0
 40
4.0
 40
5.0
 40
5.0
 40
5.0
 40
5.0
 10
1.593980771329926
 20
-3.790830265085699
 30
0.0
 10
1.593980771329926
 20
-3.790830265085699
 30
0.0
 10
1.932812919026446
 20
-3.790830265085699
 30
0.0
 10
1.932812919026446
 20
-3.790830265085699
 30
0.0
 10
2.28227847593823
 20
-3.790830265085699
 30
0.0
 10
2.522248656876829
 20
-3.953205297696879
 30
0.0
 10
2.522248656876829
 20
-4.359071031865154
 30
0.0
 10
2.522248656876829
 20
-4.76500861339303
 30
0.0
 10
2.28227847593823
 20
-4.938017055219398
 30
0.0
 10
1.950487369478828
 20
-4.938017055219398
 30
0.0
 10
1.950487369478828
 20
-4.938017055219398
 30
0.0
 10
1.593980771329926
 20
-4.938017055219398
 30
0.0
 10
1.593980771329926
 20
-4.938017055219398
 30
0.0
 10
1.593980771329926
 20
-4.938017055219398
 30
0.0
 10
1.593980771329926
 20
-3.790830265085699
 30
0.0
 10
1.593980771329926
 20
-3.790830265085699
 30
0.0
  0
SPLINE
  5
DE
330
1F
100
AcDbEntity
  8
Layer 1
 62
   179
420
  2301728
370
     9
100
AcDbSpline
210
0.0
220
0.0
230
1.0
 70
    11
 71
     3
 72
    20
 73
    16
 74
     0
 42
0.0000000001
 43
0.0000000001
 12
1.0
 22
0.0
 32
0.0
 13
1.0
 23
0.0
 33
0.0
 40
0.0
 40
0.0
 40
0.0
 40
0.0
 40
1.0
 40
1.0
 40
1.0
 40
2.0
 40
2.0
 40
2.0
 40
3.0
 40
3.0
 40
3.0
 40
4.0
 40
4.0
 40
4.0
 40
5.0
 40
5.0
 40
5.0
 40
5.0
 10
1.915138468574115
 20
-4.694454506302677
 30
0.0
 10
2.081105869163366
 20
-4.694454506302677
 30
0.0
 10
2.211724368847904
 20
-4.627349072471374
 30
0.0
 10
2.211724368847904
 20
-4.359071031865154
 30
0.0
 10
2.211724368847904
 20
-4.09086483861851
 30
0.0
 10
2.081105869163366
 20
-4.034392814002419
 30
0.0
 10
1.915138468574115
 20
-4.034392814002419
 30
0.0
 10
1.915138468574115
 20
-4.034392814002419
 30
0.0
 10
1.897607712840883
 20
-4.034392814002419
 30
0.0
 10
1.897607712840883
 20
-4.034392814002419
 30
0.0
 10
1.897607712840883
 20
-4.034392814002419
 30
0.0
 10
1.897607712840883
 20
-4.694454506302677
 30
0.0
 10
1.897607712840883
 20
-4.694454506302677
 30
0.0
 10
1.897607712840883
 20
-4.694454506302677
 30
0.0
 10
1.915138468574115
 20
-4.694454506302677
 30
0.0
 10
1.915138468574115
 20
-4.694454506302677
 30
0.0
  0
POLYLINE
  5
DF
330
1F
100
AcDbEntity
  8
Layer 1
 62
   179
420
  2301728
370
     9
100
AcDb2dPolyline
 66
     1
 10
0.0
 20
0.0
 30
0.0
  0
VERTEX
  5
E0
330
DF
100
AcDbEntity
  8
Layer 1
 62
   179
420
  2301728
370
     9
100
AcDbVertex
100
AcDb2dVertex
 10
3.870574094150672
 20
-3.790830265085699
 30
0.0
  0
VERTEX
  5
E1
330
DF
100
AcDbEntity
  8
Layer 1
 62
   179
420
  2301728
370
     9
100
AcDbVertex
100
AcDb2dVertex
 10
4.611751455396946
 20
-3.790830265085699
 30
0.0
  0
VERTEX
  5
E2
330
DF
100
AcDbEntity
  8
Layer 1
 62
   179
420
  2301728
370
     9
100
AcDbVertex
100
AcDb2dVertex
 10
4.611751455396946
 20
-4.044954375858071
 30
0.0
  0
VERTEX
  5
E3
330
DF
100
AcDbEntity
  8
Layer 1
 62
   179
420
  2301728
370
     9
100
AcDbVertex
100
AcDb2dVertex
 10
4.174201035661604
 20
-4.044954375858071
 30
0.0
  0
VERTEX
  5
E4
330
DF
100
AcDbEntity
  8
Layer 1
 62
   179
420
  2301728
370
     9
100
AcDbVertex
100
AcDb2dVertex
 10
4.174201035661604
 20
-4.225003858921619
 30
0.0
  0
VERTEX
  5
E5
330
DF
100
AcDbEntity
  8
Layer 1
 62
   179
420
  2301728
370
     9
100
AcDbVertex
100
AcDb2dVertex
 10
4.548238389543737
 20
-4.225003858921619
 30
0.0
  0
VERTEX
  5
E6
330
DF
100
AcDbEntity
  8
Layer 1
 62
   179
420
  2301728
370
     9
100
AcDbVertex
100
AcDb2dVertex
 10
4.548238389543737
 20
-4.479199817053553
 30
0.0
  0
VERTEX
  5
E7
330
DF
100
AcDbEntity
  8
Layer 1
 62
   179
420
  2301728
370
     9
100
AcDbVertex
100
AcDb2dVertex
 10
4.174201035661604
 20
-4.479199817053553
 30
0.0
  0
VERTEX
  5
E8
330
DF
100
AcDbEntity
  8
Layer 1
 62
   179
420
  2301728
370
     9
100
AcDbVertex
100
AcDb2dVertex
 10
4.174201035661604
 20
-4.683821097087464
 30
0.0
  0
VERTEX
  5
E9
330
DF
100
AcDbEntity
  8
Layer 1
 62
   179
420
  2301728
370
     9
100
AcDbVertex
100
AcDb2dVertex
 10
4.629425905849303
 20
-4.683821097087464
 30
0.0
  0
VERTEX
  5
EA
330
DF
100
AcDbEntity
  8
Layer 1
 62
   179
420
  2301728
370
     9
100
AcDbVertex
100
AcDb2dVertex
 10
4.629425905849303
 20
-4.938017055219398
 30
0.0
  0
VERTEX
  5
EB
330
DF
100
AcDbEntity
  8
Layer 1
 62
   179
420
  2301728
370
     9
100
AcDbVertex
100
AcDb2dVertex
 10
3.870574094150672
 20
-4.938017055219398
 30
0.0
  0
VERTEX
  5
EC
330
DF
100
AcDbEntity
  8
Layer 1
 62
   179
420
  2301728
370
     9
100
AcDbVertex
100
AcDb2dVertex
 10
3.870574094150672
 20
-3.790830265085699
 30
0.0
  0
SEQEND
  5
ED
330
DF
100
AcDbEntity
  8
Layer 1
 62
   179
420
  2301728
370
     9
  0
POLYLINE
  5
EE
330
1F
100
AcDbEntity
  8
Layer 1
 62
   179
420
  2301728
370
     9
100
AcDb2dPolyline
 66
     1
 10
0.0
 20
0.0
 30
0.0
  0
VERTEX
  5
EF
330
EE
100
AcDbEntity
  8
Layer 1
 62
   179
420
  2301728
370
     9
100
AcDbVertex
100
AcDb2dVertex
 10
6.125890798758292
 20
-3.801406604933176
 30
0.0
  0
VERTEX
  5
F0
330
EE
100
AcDbEntity
  8
Layer 1
 62
   179
420
  2301728
370
     9
100
AcDbVertex
100
AcDb2dVertex
 10
6.874109201241708
 20
-3.801406604933176
 30
0.0
  0
VERTEX
  5
F1
330
EE
100
AcDbEntity
  8
Layer 1
 62
   179
420
  2301728
370
     9
100
AcDbVertex
100
AcDb2dVertex
 10
6.874109201241708
 20
-4.055530715705546
 30
0.0
  0
VERTEX
  5
F2
330
EE
100
AcDbEntity
  8
Layer 1
 62
   179
420
  2301728
370
     9
100
AcDbVertex
100
AcDb2dVertex
 10
6.429517740269223
 20
-4.055530715705546
 30
0.0
  0
VERTEX
  5
F3
330
EE
100
AcDbEntity
  8
Layer 1
 62
   179
420
  2301728
370
     9
100
AcDbVertex
100
AcDb2dVertex
 10
6.429517740269223
 20
-4.274377772932831
 30
0.0
  0
VERTEX
  5
F4
330
EE
100
AcDbEntity
  8
Layer 1
 62
   179
420
  2301728
370
     9
100
AcDbVertex
100
AcDb2dVertex
 10
6.810596135388474
 20
-4.274377772932831
 30
0.0
  0
VERTEX
  5
F5
330
EE
100
AcDbEntity
  8
Layer 1
 62
   179
420
  2301728
370
     9
100
AcDbVertex
100
AcDb2dVertex
 10
6.810596135388474
 20
-4.52857373106479
 30
0.0
  0
VERTEX
  5
F6
330
EE
100
AcDbEntity
  8
Layer 1
 62
   179
420
  2301728
370
     9
100
AcDbVertex
100
AcDb2dVertex
 10
6.429517740269223
 20
-4.52857373106479
 30
0.0
  0
VERTEX
  5
F7
330
EE
100
AcDbEntity
  8
Layer 1
 62
   179
420
  2301728
370
     9
100
AcDbVertex
100
AcDb2dVertex
 10
6.429517740269223
 20
-4.948593395066874
 30
0.0
  0
VERTEX
  5
F8
330
EE
100
AcDbEntity
  8
Layer 1
 62
   179
420
  2301728
370
     9
100
AcDbVertex
100
AcDb2dVertex
 10
6.125890798758292
 20
-4.948593395066874
 30
0.0
  0
VERTEX
  5
F9
330
EE
100
AcDbEntity
  8
Layer 1
 62
   179
420
  2301728
370
     9
100
AcDbVertex
100
AcDb2dVertex
 10
6.125890798758292
 20
-3.801406604933176
 30
0.0
  0
SEQEND
  5
FA
330
EE
100
AcDbEntity
  8
Layer 1
 62
   179
420
  2301728
370
     9
  0
SPLINE
  5
FB
330
1F
100
AcDbEntity
  8
Layer 1
 62
   179
420
  2301728
370
     9
100
AcDbSpline
210
0.0
220
0.0
230
1.0
 70
    11
 71
     3
 72
    47
 73
    43
 74
     0
 42
0.0000000001
 43
0.0000000001
 12
1.0
 22
0.0
 32
0.0
 13
1.0
 23
0.0
 33
0.0
 40
0.0
 40
0.0
 40
0.0
 40
0.0
 40
1.0
 40
1.0
 40
1.0
 40
2.0
 40
2.0
 40
2.0
 40
3.0
 40
3.0
 40
3.0
 40
4.0
 40
4.0
 40
4.0
 40
5.0
 40
5.0
 40
5.0
 40
6.0
 40
6.0
 40
6.0
 40
7.0
 40
7.0
 40
7.0
 40
8.0
 40
8.0
 40
8.0
 40
9.0
 40
9.0
 40
9.0
 40
10.0
 40
10.0
 40
10.0
 40
11.0
 40
11.0
 40
11.0
 40
12.0
 40
12.0
 40
12.0
 40
13.0
 40
13.0
 40
13.0
 40
14.0
 40
14.0
 40
14.0
 40
14.0
 10
2.095341446139375
 20
-6.044436940920908
 30
0.0
 10
2.25771647875053
 20
-6.044436940920908
 30
0.0
 10
2.381150242478826
 20
-6.114991048011234
 30
0.0
 10
2.462337758784391
 20
-6.196178564316798
 30
0.0
 10
2.462337758784391
 20
-6.196178564316798
 30
0.0
 10
2.296514052914239
 20
-6.383269088617453
 30
0.0
 10
2.296514052914239
 20
-6.383269088617453
 30
0.0
 10
2.240042028298174
 20
-6.333838105238505
 30
0.0
 10
2.190611044919175
 20
-6.305602092930409
 30
0.0
 10
2.098790119398371
 20
-6.305602092930409
 30
0.0
 10
1.943456128024334
 20
-6.305602092930409
 30
0.0
 10
1.827063405533206
 20
-6.429107704018279
 30
0.0
 10
1.827063405533206
 20
-6.637393199389862
 30
0.0
 10
1.827063405533206
 20
-6.852647888638936
 30
0.0
 10
1.922333004313006
 20
-6.972632979108261
 30
0.0
 10
2.127097979065992
 20
-6.972632979108261
 30
0.0
 10
2.158854511992584
 20
-6.972632979108261
 30
0.0
 10
2.194059718178171
 20
-6.965591937871143
 30
0.0
 10
2.215326536608675
 20
-6.951509855396883
 30
0.0
 10
2.215326536608675
 20
-6.951509855396883
 30
0.0
 10
2.215326536608675
 20
-6.792727190763874
 30
0.0
 10
2.215326536608675
 20
-6.792727190763874
 30
0.0
 10
2.215326536608675
 20
-6.792727190763874
 30
0.0
 10
2.045910462760402
 20
-6.792727190763874
 30
0.0
 10
2.045910462760402
 20
-6.792727190763874
 30
0.0
 10
2.045910462760402
 20
-6.792727190763874
 30
0.0
 10
2.045910462760402
 20
-6.545572273869058
 30
0.0
 10
2.045910462760402
 20
-6.545572273869058
 30
0.0
 10
2.045910462760402
 20
-6.545572273869058
 30
0.0
 10
2.483604577214868
 20
-6.545572273869058
 30
0.0
 10
2.483604577214868
 20
-6.545572273869058
 30
0.0
 10
2.483604577214868
 20
-6.545572273869058
 30
0.0
 10
2.483604577214868
 20
-7.092761764296685
 30
0.0
 10
2.483604577214868
 20
-7.092761764296685
 30
0.0
 10
2.398824692931183
 20
-7.170356912624103
 30
0.0
 10
2.250531742794263
 20
-7.233869978477337
 30
0.0
 10
2.088156710183132
 20
-7.233869978477337
 30
0.0
 10
1.774040054176061
 20
-7.233869978477337
 30
0.0
 10
1.516395422785106
 20
-7.039738412939591
 30
0.0
 10
1.516395422785106
 20
-6.648026608605051
 30
0.0
 10
1.516395422785106
 20
-6.263212150788578
 30
0.0
 10
1.781224790132329
 20
-6.044436940920908
 30
0.0
 10
2.095341446139375
 20
-6.044436940920908
 30
0.0
  0
POLYLINE
  5
FC
330
1F
100
AcDbEntity
  8
Layer 1
 62
   179
420
  2301728
370
     9
100
AcDb2dPolyline
 66
     1
 10
0.0
 20
0.0
 30
0.0
  0
VERTEX
  5
FD
330
FC
100
AcDbEntity
  8
Layer 1
 62
   179
420
  2301728
370
     9
100
AcDbVertex
100
AcDb2dVertex
 10
3.775232648011322
 20
-6.051406604933163
 30
0.0
  0
VERTEX
  5
FE
330
FC
100
AcDbEntity
  8
Layer 1
 62
   179
420
  2301728
370
     9
100
AcDbVertex
100
AcDb2dVertex
 10
4.078859589522229
 20
-6.051406604933163
 30
0.0
  0
VERTEX
  5
FF
330
FC
100
AcDbEntity
  8
Layer 1
 62
   179
420
  2301728
370
     9
100
AcDbVertex
100
AcDb2dVertex
 10
4.078859589522229
 20
-6.478539157531941
 30
0.0
  0
VERTEX
  5
100
330
FC
100
AcDbEntity
  8
Layer 1
 62
   179
420
  2301728
370
     9
100
AcDbVertex
100
AcDb2dVertex
 10
4.42114041047777
 20
-6.478539157531941
 30
0.0
  0
VERTEX
  5
101
330
FC
100
AcDbEntity
  8
Layer 1
 62
   179
420
  2301728
370
     9
100
AcDbVertex
100
AcDb2dVertex
 10
4.42114041047777
 20
-6.051406604933163
 30
0.0
  0
VERTEX
  5
102
330
FC
100
AcDbEntity
  8
Layer 1
 62
   179
420
  2301728
370
     9
100
AcDbVertex
100
AcDb2dVertex
 10
4.724767351988703
 20
-6.051406604933163
 30
0.0
  0
VERTEX
  5
103
330
FC
100
AcDbEntity
  8
Layer 1
 62
   179
420
  2301728
370
     9
100
AcDbVertex
100
AcDb2dVertex
 10
4.724767351988703
 20
-7.198593395066837
 30
0.0
  0
VERTEX
  5
104
330
FC
100
AcDbEntity
  8
Layer 1
 62
   179
420
  2301728
370
     9
100
AcDbVertex
100
AcDb2dVertex
 10
4.42114041047777
 20
-7.198593395066837
 30
0.0
  0
VERTEX
  5
105
330
FC
100
AcDbEntity
  8
Layer 1
 62
   179
420
  2301728
370
     9
100
AcDbVertex
100
AcDb2dVertex
 10
4.42114041047777
 20
-6.743224830160013
 30
0.0
  0
VERTEX
  5
106
330
FC
100
AcDbEntity
  8
Layer 1
 62
   179
420
  2301728
370
     9
100
AcDbVertex
100
AcDb2dVertex
 10
4.078859589522229
 20
-6.743224830160013
 30
0.0
  0
VERTEX
  5
107
330
FC
100
AcDbEntity
  8
Layer 1
 62
   179
420
  2301728
370
     9
100
AcDbVertex
100
AcDb2dVertex
 10
4.078859589522229
 20
-7.198593395066837
 30
0.0
  0
VERTEX
  5
108
330
FC
100
AcDbEntity
  8
Layer 1
 62
   179
420
  2301728
370
     9
100
AcDbVertex
100
AcDb2dVertex
 10
3.775232648011322
 20
-7.198593395066837
 30
0.0
  0
VERTEX
  5
109
330
FC
100
AcDbEntity
  8
Layer 1
 62
   179
420
  2301728
370
     9
100
AcDbVertex
100
AcDb2dVertex
 10
3.775232648011322
 20
-6.051406604933163
 30
0.0
  0
SEQEND
  5
10A
330
FC
100
AcDbEntity
  8
Layer 1
 62
   179
420
  2301728
370
     9
  0
POLYLINE
  5
10B
330
1F
100
AcDbEntity
  8
Layer 1
 62
   179
420
  2301728
370
     9
100
AcDb2dPolyline
 66
     1
 10
0.0
 20
0.0
 30
0.0
  0
VERTEX
  5
10C
330
10B
100
AcDbEntity
  8
Layer 1
 62
   179
420
  2301728
370
     9
100
AcDbVertex
100
AcDb2dVertex
 10
6.348186529244534
 20
-6.051406604933163
 30
0.0
  0
VERTEX
  5
10D
330
10B
100
AcDbEntity
  8
Layer 1
 62
   179
420
  2301728
370
     9
100
AcDbVertex
100
AcDb2dVertex
 10
6.651813470755465
 20
-6.051406604933163
 30
0.0
  0
VERTEX
  5
10E
330
10B
100
AcDbEntity
  8
Layer 1
 62
   179
420
  2301728
370
     9
100
AcDbVertex
100
AcDb2dVertex
 10
6.651813470755465
 20
-7.198593395066862
 30
0.0
  0
VERTEX
  5
10F
330
10B
100
AcDbEntity
  8
Layer 1
 62
   179
420
  2301728
370
     9
100
AcDbVertex
100
AcDb2dVertex
 10
6.348186529244534
 20
-7.198593395066862
 30
0.0
  0
VERTEX
  5
110
330
10B
100
AcDbEntity
  8
Layer 1
 62
   179
420
  2301728
370
     9
100
AcDbVertex
100
AcDb2dVertex
 10
6.348186529244534
 20
-6.051406604933163
 30
0.0
  0
SEQEND
  5
111
330
10B
100
AcDbEntity
  8
Layer 1
 62
   179
420
  2301728
370
     9
  0
SPLINE
  5
112
330
1F
100
AcDbEntity
  8
Layer 1
 62
   179
420
  2301728
370
     9
100
AcDbSpline
210
0.0
220
0.0
230
1.0
 70
    11
 71
     3
 72
    29
 73
    25
 74
     0
 42
0.0000000001
 43
0.0000000001
 12
1.0
 22
0.0
 32
0.0
 13
1.0
 23
0.0
 33
0.0
 40
0.0
 40
0.0
 40
0.0
 40
0.0
 40
1.0
 40
1.0
 40
1.0
 40
2.0
 40
2.0
 40
2.0
 40
3.0
 40
3.0
 40
3.0
 40
4.0
 40
4.0
 40
4.0
 40
5.0
 40
5.0
 40
5.0
 40
6.0
 40
6.0
 40
6.0
 40
7.0
 40
7.0
 40
7.0
 40
8.0
 40
8.0
 40
8.0
 40
8.0
 10
1.814633812328869
 20
-9.094369988243114
 30
0.0
 10
1.853575081211728
 20
-9.168516463311587
 30
0.0
 10
1.910047105827819
 20
-9.2037216694972
 30
0.0
 10
1.959334394487668
 20
-9.2037216694972
 30
0.0
 10
2.040521910793232
 20
-9.2037216694972
 30
0.0
 10
2.086504220913184
 20
-9.16492409533344
 30
0.0
 10
2.086504220913184
 20
-9.020223513174692
 30
0.0
 10
2.086504220913184
 20
-9.020223513174692
 30
0.0
 10
2.086504220913184
 20
-8.296648755021199
 30
0.0
 10
2.086504220913184
 20
-8.296648755021199
 30
0.0
 10
2.086504220913184
 20
-8.296648755021199
 30
0.0
 10
2.389987467705017
 20
-8.296648755021199
 30
0.0
 10
2.389987467705017
 20
-8.296648755021199
 30
0.0
 10
2.389987467705017
 20
-8.296648755021199
 30
0.0
 10
2.389987467705017
 20
-9.044939004864165
 30
0.0
 10
2.389987467705017
 20
-9.044939004864165
 30
0.0
 10
2.389987467705017
 20
-9.27441947130665
 30
0.0
 10
2.266410009257545
 20
-9.46495866886625
 30
0.0
 10
2.001724336629473
 20
-9.46495866886625
 30
0.0
 10
1.814633812328869
 20
-9.46495866886625
 30
0.0
 10
1.694648721859544
 20
-9.394404561775925
 30
0.0
 10
1.610012532294983
 20
-9.247979642987653
 30
0.0
 10
1.610012532294983
 20
-9.247979642987653
 30
0.0
 10
1.814633812328869
 20
-9.094369988243114
 30
0.0
 10
1.814633812328869
 20
-9.094369988243114
 30
0.0
  0
POLYLINE
  5
113
330
1F
100
AcDbEntity
  8
Layer 1
 62
   179
420
  2301728
370
     9
100
AcDb2dPolyline
 66
     1
 10
0.0
 20
0.0
 30
0.0
  0
VERTEX
  5
114
330
113
100
AcDbEntity
  8
Layer 1
 62
   179
420
  2301728
370
     9
100
AcDbVertex
100
AcDb2dVertex
 10
3.750589003681423
 20
-8.317786656724314
 30
0.0
  0
VERTEX
  5
115
330
113
100
AcDbEntity
  8
Layer 1
 62
   179
420
  2301728
370
     9
100
AcDbVertex
100
AcDb2dVertex
 10
4.054215945192356
 20
-8.317786656724314
 30
0.0
  0
VERTEX
  5
116
330
113
100
AcDbEntity
  8
Layer 1
 62
   179
420
  2301728
370
     9
100
AcDbVertex
100
AcDb2dVertex
 10
4.054215945192356
 20
-8.744919209323118
 30
0.0
  0
VERTEX
  5
117
330
113
100
AcDbEntity
  8
Layer 1
 62
   179
420
  2301728
370
     9
100
AcDbVertex
100
AcDb2dVertex
 10
4.061256986429473
 20
-8.744919209323118
 30
0.0
  0
VERTEX
  5
118
330
113
100
AcDbEntity
  8
Layer 1
 62
   179
420
  2301728
370
     9
100
AcDbVertex
100
AcDb2dVertex
 10
4.350658150747019
 20
-8.317786656724314
 30
0.0
  0
VERTEX
  5
119
330
113
100
AcDbEntity
  8
Layer 1
 62
   179
420
  2301728
370
     9
100
AcDbVertex
100
AcDb2dVertex
 10
4.682449257206447
 20
-8.317786656724314
 30
0.0
  0
VERTEX
  5
11A
330
113
100
AcDbEntity
  8
Layer 1
 62
   179
420
  2301728
370
     9
100
AcDbVertex
100
AcDb2dVertex
 10
4.340024741531781
 20
-8.783716783486877
 30
0.0
  0
VERTEX
  5
11B
330
113
100
AcDbEntity
  8
Layer 1
 62
   179
420
  2301728
370
     9
100
AcDbVertex
100
AcDb2dVertex
 10
4.749410996318653
 20
-9.464973446858012
 30
0.0
  0
VERTEX
  5
11C
330
113
100
AcDbEntity
  8
Layer 1
 62
   179
420
  2301728
370
     9
100
AcDbVertex
100
AcDb2dVertex
 10
4.417763584578349
 20
-9.464973446858012
 30
0.0
  0
VERTEX
  5
11D
330
113
100
AcDbEntity
  8
Layer 1
 62
   179
420
  2301728
370
     9
100
AcDbVertex
100
AcDb2dVertex
 10
4.16356762644639
 20
-9.023686964425425
 30
0.0
  0
VERTEX
  5
11E
330
113
100
AcDbEntity
  8
Layer 1
 62
   179
420
  2301728
370
     9
100
AcDbVertex
100
AcDb2dVertex
 10
4.054215945192356
 20
-9.179020955799462
 30
0.0
  0
VERTEX
  5
11F
330
113
100
AcDbEntity
  8
Layer 1
 62
   179
420
  2301728
370
     9
100
AcDbVertex
100
AcDb2dVertex
 10
4.054215945192356
 20
-9.464973446858012
 30
0.0
  0
VERTEX
  5
120
330
113
100
AcDbEntity
  8
Layer 1
 62
   179
420
  2301728
370
     9
100
AcDbVertex
100
AcDb2dVertex
 10
3.750589003681423
 20
-9.464973446858012
 30
0.0
  0
VERTEX
  5
121
330
113
100
AcDbEntity
  8
Layer 1
 62
   179
420
  2301728
370
     9
100
AcDbVertex
100
AcDb2dVertex
 10
3.750589003681423
 20
-8.317786656724314
 30
0.0
  0
SEQEND
  5
122
330
113
100
AcDbEntity
  8
Layer 1
 62
   179
420
  2301728
370
     9
  0
POLYLINE
  5
123
330
1F
100
AcDbEntity
  8
Layer 1
 62
   179
420
  2301728
370
     9
100
AcDb2dPolyline
 66
     1
 10
0.0
 20
0.0
 30
0.0
  0
VERTEX
  5
124
330
123
100
AcDbEntity
  8
Layer 1
 62
   179
420
  2301728
370
     9
100
AcDbVertex
100
AcDb2dVertex
 10
6.131135656006387
 20
-8.301406604933163
 30
0.0
  0
VERTEX
  5
125
330
123
100
AcDbEntity
  8
Layer 1
 62
   179
420
  2301728
370
     9
100
AcDbVertex
100
AcDb2dVertex
 10
6.434762597517293
 20
-8.301406604933163
 30
0.0
  0
VERTEX
  5
126
330
123
100
AcDbEntity
  8
Layer 1
 62
   179
420
  2301728
370
     9
100
AcDbVertex
100
AcDb2dVertex
 10
6.434762597517293
 20
-9.194397436934928
 30
0.0
  0
VERTEX
  5
127
330
123
100
AcDbEntity
  8
Layer 1
 62
   179
420
  2301728
370
     9
100
AcDbVertex
100
AcDb2dVertex
 10
6.868864343993638
 20
-9.194397436934928
 30
0.0
  0
VERTEX
  5
128
330
123
100
AcDbEntity
  8
Layer 1
 62
   179
420
  2301728
370
     9
100
AcDbVertex
100
AcDb2dVertex
 10
6.868864343993638
 20
-9.448593395066862
 30
0.0
  0
VERTEX
  5
129
330
123
100
AcDbEntity
  8
Layer 1
 62
   179
420
  2301728
370
     9
100
AcDbVertex
100
AcDb2dVertex
 10
6.131135656006387
 20
-9.448593395066862
 30
0.0
  0
VERTEX
  5
12A
330
123
100
AcDbEntity
  8
Layer 1
 62
   179
420
  2301728
370
     9
100
AcDbVertex
100
AcDb2dVertex
 10
6.131135656006387
 20
-8.301406604933163
 30
0.0
  0
SEQEND
  5
12B
330
123
100
AcDbEntity
  8
Layer 1
 62
   179
420
  2301728
370
     9
  0
SPLINE
  5
12C
330
1F
100
AcDbEntity
  8
Layer 1
 62
   179
420
  2301728
370
     9
100
AcDbSpline
210
0.0
220
0.0
230
1.0
 70
    11
 71
     3
 72
    71
 73
    67
 74
     0
 42
0.0000000001
 43
0.0000000001
 12
1.0
 22
0.0
 32
0.0
 13
1.0
 23
0.0
 33
0.0
 40
0.0
 40
0.0
 40
0.0
 40
0.0
 40
1.0
 40
1.0
 40
1.0
 40
2.0
 40
2.0
 40
2.0
 40
3.0
 40
3.0
 40
3.0
 40
4.0
 40
4.0
 40
4.0
 40
5.0
 40
5.0
 40
5.0
 40
6.0
 40
6.0
 40
6.0
 40
7.0
 40
7.0
 40
7.0
 40
8.0
 40
8.0
 40
8.0
 40
9.0
 40
9.0
 40
9.0
 40
10.0
 40
10.0
 40
10.0
 40
11.0
 40
11.0
 40
11.0
 40
12.0
 40
12.0
 40
12.0
 40
13.0
 40
13.0
 40
13.0
 40
14.0
 40
14.0
 40
14.0
 40
15.0
 40
15.0
 40
15.0
 40
16.0
 40
16.0
 40
16.0
 40
17.0
 40
17.0
 40
17.0
 40
18.0
 40
18.0
 40
18.0
 40
19.0
 40
19.0
 40
19.0
 40
20.0
 40
20.0
 40
20.0
 40
21.0
 40
21.0
 40
21.0
 40
22.0
 40
22.0
 40
22.0
 40
22.0
 10
10.27259184232129
 20
-1.551406604933138
 30
0.0
 10
10.27259184232129
 20
-1.551406604933138
 30
0.0
 10
10.58670849832833
 20
-1.551406604933138
 30
0.0
 10
10.58670849832833
 20
-1.551406604933138
 30
0.0
 10
10.58670849832833
 20
-1.551406604933138
 30
0.0
 10
10.76675798139185
 20
-2.027898293551314
 30
0.0
 10
10.76675798139185
 20
-2.027898293551314
 30
0.0
 10
10.76675798139185
 20
-2.027898293551314
 30
0.0
 10
10.83027104724505
 20
-2.215060665211543
 30
0.0
 10
10.83027104724505
 20
-2.215060665211543
 30
0.0
 10
10.83027104724505
 20
-2.215060665211543
 30
0.0
 10
10.83731208848217
 20
-2.215060665211543
 30
0.0
 10
10.83731208848217
 20
-2.215060665211543
 30
0.0
 10
10.83731208848217
 20
-2.215060665211543
 30
0.0
 10
10.90082515433538
 20
-2.027898293551314
 30
0.0
 10
10.90082515433538
 20
-2.027898293551314
 30
0.0
 10
10.90082515433538
 20
-2.027898293551314
 30
0.0
 10
11.07383359616177
 20
-1.551406604933138
 30
0.0
 10
11.07383359616177
 20
-1.551406604933138
 30
0.0
 10
11.07383359616177
 20
-1.551406604933138
 30
0.0
 10
11.38795025216882
 20
-1.551406604933138
 30
0.0
 10
11.38795025216882
 20
-1.551406604933138
 30
0.0
 10
11.38795025216882
 20
-1.551406604933138
 30
0.0
 10
11.38795025216882
 20
-2.698593395066837
 30
0.0
 10
11.38795025216882
 20
-2.698593395066837
 30
0.0
 10
11.38795025216882
 20
-2.698593395066837
 30
0.0
 10
11.10559012908834
 20
-2.698593395066837
 30
0.0
 10
11.10559012908834
 20
-2.698593395066837
 30
0.0
 10
11.10559012908834
 20
-2.698593395066837
 30
0.0
 10
11.10559012908834
 20
-2.359761247370342
 30
0.0
 10
11.10559012908834
 20
-2.359761247370342
 30
0.0
 10
11.10559012908834
 20
-2.243224830160014
 30
0.0
 10
11.13030562077786
 20
-2.064971531085575
 30
0.0
 10
11.1443877032521
 20
-1.95023129786432
 30
0.0
 10
11.1443877032521
 20
-1.95023129786432
 30
0.0
 10
11.13734666201496
 20
-1.95023129786432
 30
0.0
 10
11.13734666201496
 20
-1.95023129786432
 30
0.0
 10
11.13734666201496
 20
-1.95023129786432
 30
0.0
 10
11.04207706323516
 20
-2.218509338470514
 30
0.0
 10
11.04207706323516
 20
-2.218509338470514
 30
0.0
 10
11.04207706323516
 20
-2.218509338470514
 30
0.0
 10
10.88329439860215
 20
-2.605048132916535
 30
0.0
 10
10.88329439860215
 20
-2.605048132916535
 30
0.0
 10
10.88329439860215
 20
-2.605048132916535
 30
0.0
 10
10.77035034936994
 20
-2.605048132916535
 30
0.0
 10
10.77035034936994
 20
-2.605048132916535
 30
0.0
 10
10.77035034936994
 20
-2.605048132916535
 30
0.0
 10
10.61142399001781
 20
-2.218509338470514
 30
0.0
 10
10.61142399001781
 20
-2.218509338470514
 30
0.0
 10
10.61142399001781
 20
-2.218509338470514
 30
0.0
 10
10.51974675921613
 20
-1.95023129786432
 30
0.0
 10
10.51974675921613
 20
-1.95023129786432
 30
0.0
 10
10.51974675921613
 20
-1.95023129786432
 30
0.0
 10
10.51270571797901
 20
-1.95023129786432
 30
0.0
 10
10.51270571797901
 20
-1.95023129786432
 30
0.0
 10
10.52678780045325
 20
-2.064971531085575
 30
0.0
 10
10.55150329214275
 20
-2.243224830160014
 30
0.0
 10
10.55150329214275
 20
-2.359761247370342
 30
0.0
 10
10.55150329214275
 20
-2.359761247370342
 30
0.0
 10
10.55150329214275
 20
-2.698593395066837
 30
0.0
 10
10.55150329214275
 20
-2.698593395066837
 30
0.0
 10
10.55150329214275
 20
-2.698593395066837
 30
0.0
 10
10.27259184232129
 20
-2.698593395066837
 30
0.0
 10
10.27259184232129
 20
-2.698593395066837
 30
0.0
 10
10.27259184232129
 20
-2.698593395066837
 30
0.0
 10
10.27259184232129
 20
-1.551406604933138
 30
0.0
 10
10.27259184232129
 20
-1.551406604933138
 30
0.0
  0
SPLINE
  5
12D
330
1F
100
AcDbEntity
  8
Layer 1
 62
   179
420
  2301728
370
     9
100
AcDbSpline
210
0.0
220
0.0
230
1.0
 70
    11
 71
     3
 72
    53
 73
    49
 74
     0
 42
0.0000000001
 43
0.0000000001
 12
1.0
 22
0.0
 32
0.0
 13
1.0
 23
0.0
 33
0.0
 40
0.0
 40
0.0
 40
0.0
 40
0.0
 40
1.0
 40
1.0
 40
1.0
 40
2.0
 40
2.0
 40
2.0
 40
3.0
 40
3.0
 40
3.0
 40
4.0
 40
4.0
 40
4.0
 40
5.0
 40
5.0
 40
5.0
 40
6.0
 40
6.0
 40
6.0
 40
7.0
 40
7.0
 40
7.0
 40
8.0
 40
8.0
 40
8.0
 40
9.0
 40
9.0
 40
9.0
 40
10.0
 40
10.0
 40
10.0
 40
11.0
 40
11.0
 40
11.0
 40
12.0
 40
12.0
 40
12.0
 40
13.0
 40
13.0
 40
13.0
 40
14.0
 40
14.0
 40
14.0
 40
15.0
 40
15.0
 40
15.0
 40
16.0
 40
16.0
 40
16.0
 40
16.0
 10
12.65212258788392
 20
-1.551406604933138
 30
0.0
 10
12.65212258788392
 20
-1.551406604933138
 30
0.0
 10
12.962790570632
 20
-1.551406604933138
 30
0.0
 10
12.962790570632
 20
-1.551406604933138
 30
0.0
 10
12.962790570632
 20
-1.551406604933138
 30
0.0
 10
13.21684283404486
 20
-2.063175347096502
 30
0.0
 10
13.21684283404486
 20
-2.063175347096502
 30
0.0
 10
13.21684283404486
 20
-2.063175347096502
 30
0.0
 10
13.32633821001799
 20
-2.320963673206582
 30
0.0
 10
13.32633821001799
 20
-2.320963673206582
 30
0.0
 10
13.32633821001799
 20
-2.320963673206582
 30
0.0
 10
13.33337925125513
 20
-2.320963673206582
 30
0.0
 10
13.33337925125513
 20
-2.320963673206582
 30
0.0
 10
13.3192971687809
 20
-2.197386214759161
 30
0.0
 10
13.29458167709143
 20
-2.024377772932793
 30
0.0
 10
13.29458167709143
 20
-1.883197711392566
 30
0.0
 10
13.29458167709143
 20
-1.883197711392566
 30
0.0
 10
13.29458167709143
 20
-1.551406604933138
 30
0.0
 10
13.29458167709143
 20
-1.551406604933138
 30
0.0
 10
13.29458167709143
 20
-1.551406604933138
 30
0.0
 10
13.58398284140897
 20
-1.551406604933138
 30
0.0
 10
13.58398284140897
 20
-1.551406604933138
 30
0.0
 10
13.58398284140897
 20
-1.551406604933138
 30
0.0
 10
13.58398284140897
 20
-2.698593395066837
 30
0.0
 10
13.58398284140897
 20
-2.698593395066837
 30
0.0
 10
13.58398284140897
 20
-2.698593395066837
 30
0.0
 10
13.27331485866095
 20
-2.698593395066837
 30
0.0
 10
13.27331485866095
 20
-2.698593395066837
 30
0.0
 10
13.27331485866095
 20
-2.698593395066837
 30
0.0
 10
13.01926259524806
 20
-2.18502846891445
 30
0.0
 10
13.01926259524806
 20
-2.18502846891445
 30
0.0
 10
13.01926259524806
 20
-2.18502846891445
 30
0.0
 10
12.90976721927488
 20
-1.929108174152993
 30
0.0
 10
12.90976721927488
 20
-1.929108174152993
 30
0.0
 10
12.90976721927488
 20
-1.929108174152993
 30
0.0
 10
12.90272617803776
 20
-1.929108174152993
 30
0.0
 10
12.90272617803776
 20
-1.929108174152993
 30
0.0
 10
12.91680826051202
 20
-2.059654826477931
 30
0.0
 10
12.94152375220149
 20
-2.225550379707632
 30
0.0
 10
12.94152375220149
 20
-2.366802288607434
 30
0.0
 10
12.94152375220149
 20
-2.366802288607434
 30
0.0
 10
12.94152375220149
 20
-2.698593395066837
 30
0.0
 10
12.94152375220149
 20
-2.698593395066837
 30
0.0
 10
12.94152375220149
 20
-2.698593395066837
 30
0.0
 10
12.65212258788392
 20
-2.698593395066837
 30
0.0
 10
12.65212258788392
 20
-2.698593395066837
 30
0.0
 10
12.65212258788392
 20
-2.698593395066837
 30
0.0
 10
12.65212258788392
 20
-1.551406604933138
 30
0.0
 10
12.65212258788392
 20
-1.551406604933138
 30
0.0
  0
SPLINE
  5
12E
330
1F
100
AcDbEntity
  8
Layer 1
 62
   179
420
  2301728
370
     9
100
AcDbSpline
210
0.0
220
0.0
230
1.0
 70
    11
 71
     3
 72
    17
 73
    13
 74
     0
 42
0.0000000001
 43
0.0000000001
 12
1.0
 22
0.0
 32
0.0
 13
1.0
 23
0.0
 33
0.0
 40
0.0
 40
0.0
 40
0.0
 40
0.0
 40
1.0
 40
1.0
 40
1.0
 40
2.0
 40
2.0
 40
2.0
 40
3.0
 40
3.0
 40
3.0
 40
4.0
 40
4.0
 40
4.0
 40
4.0
 10
14.80614455923695
 20
-2.09852424800124
 30
0.0
 10
14.80614455923695
 20
-1.720894526140986
 30
0.0
 10
15.0215429432052
 20
-1.509160357510432
 30
0.0
 10
15.33910827247127
 20
-1.509160357510432
 30
0.0
 10
15.65681729645639
 20
-1.509160357510432
 30
0.0
 10
15.87207198570551
 20
-1.722690710130059
 30
0.0
 10
15.87207198570551
 20
-2.09852424800124
 30
0.0
 10
15.87207198570551
 20
-2.476297664580594
 30
0.0
 10
15.65681729645639
 20
-2.698593395066837
 30
0.0
 10
15.33910827247127
 20
-2.698593395066837
 30
0.0
 10
15.0215429432052
 20
-2.698593395066837
 30
0.0
 10
14.80614455923695
 20
-2.476297664580594
 30
0.0
 10
14.80614455923695
 20
-2.09852424800124
 30
0.0
  0
SPLINE
  5
12F
330
1F
100
AcDbEntity
  8
Layer 1
 62
   179
420
  2301728
370
     9
100
AcDbSpline
210
0.0
220
0.0
230
1.0
 70
    11
 71
     3
 72
    17
 73
    13
 74
     0
 42
0.0000000001
 43
0.0000000001
 12
1.0
 22
0.0
 32
0.0
 13
1.0
 23
0.0
 33
0.0
 40
0.0
 40
0.0
 40
0.0
 40
0.0
 40
1.0
 40
1.0
 40
1.0
 40
2.0
 40
2.0
 40
2.0
 40
3.0
 40
3.0
 40
3.0
 40
4.0
 40
4.0
 40
4.0
 40
4.0
 10
15.56154769767664
 20
-2.09852424800124
 30
0.0
 10
15.56154769767664
 20
-1.890310599989233
 30
0.0
 10
15.47676781339293
 20
-1.770325509519934
 30
0.0
 10
15.33910827247127
 20
-1.770325509519934
 30
0.0
 10
15.20144873154956
 20
-1.770325509519934
 30
0.0
 10
15.11681254198505
 20
-1.890310599989233
 30
0.0
 10
15.11681254198505
 20
-2.09852424800124
 30
0.0
 10
15.11681254198505
 20
-2.306881590732372
 30
0.0
 10
15.20144873154956
 20
-2.437356395697786
 30
0.0
 10
15.33910827247127
 20
-2.437356395697786
 30
0.0
 10
15.47676781339293
 20
-2.437356395697786
 30
0.0
 10
15.56154769767664
 20
-2.306881590732372
 30
0.0
 10
15.56154769767664
 20
-2.09852424800124
 30
0.0
  0
SPLINE
  5
130
330
1F
100
AcDbEntity
  8
Layer 1
 62
   179
420
  2301728
370
     9
100
AcDbSpline
210
0.0
220
0.0
230
1.0
 70
    11
 71
     3
 72
    26
 73
    22
 74
     0
 42
0.0000000001
 43
0.0000000001
 12
1.0
 22
0.0
 32
0.0
 13
1.0
 23
0.0
 33
0.0
 40
0.0
 40
0.0
 40
0.0
 40
0.0
 40
1.0
 40
1.0
 40
1.0
 40
2.0
 40
2.0
 40
2.0
 40
3.0
 40
3.0
 40
3.0
 40
4.0
 40
4.0
 40
4.0
 40
5.0
 40
5.0
 40
5.0
 40
6.0
 40
6.0
 40
6.0
 40
7.0
 40
7.0
 40
7.0
 40
7.0
 10
10.3537793586269
 20
-3.801406604933163
 30
0.0
 10
10.3537793586269
 20
-3.801406604933163
 30
0.0
 10
10.79851451431849
 20
-3.801406604933163
 30
0.0
 10
10.79851451431849
 20
-3.801406604933163
 30
0.0
 10
11.04566943121333
 20
-3.801406604933163
 30
0.0
 10
11.25733175248426
 20
-3.893227530454017
 30
0.0
 10
11.25733175248426
 20
-4.182628694771564
 30
0.0
 10
11.25733175248426
 20
-4.463192633862946
 30
0.0
 10
11.03848469525706
 20
-4.585045755680867
 30
0.0
 10
10.79851451431849
 20
-4.585045755680867
 30
0.0
 10
10.79851451431849
 20
-4.585045755680867
 30
0.0
 10
10.65740630013781
 20
-4.585045755680867
 30
0.0
 10
10.65740630013781
 20
-4.585045755680867
 30
0.0
 10
10.65740630013781
 20
-4.585045755680867
 30
0.0
 10
10.65740630013781
 20
-4.948593395066887
 30
0.0
 10
10.65740630013781
 20
-4.948593395066887
 30
0.0
 10
10.65740630013781
 20
-4.948593395066887
 30
0.0
 10
10.3537793586269
 20
-4.948593395066887
 30
0.0
 10
10.3537793586269
 20
-4.948593395066887
 30
0.0
 10
10.3537793586269
 20
-4.948593395066887
 30
0.0
 10
10.3537793586269
 20
-3.801406604933163
 30
0.0
 10
10.3537793586269
 20
-3.801406604933163
 30
0.0
  0
SPLINE
  5
131
330
1F
100
AcDbEntity
  8
Layer 1
 62
   179
420
  2301728
370
     9
100
AcDbSpline
210
0.0
220
0.0
230
1.0
 70
    11
 71
     3
 72
    20
 73
    16
 74
     0
 42
0.0000000001
 43
0.0000000001
 12
1.0
 22
0.0
 32
0.0
 13
1.0
 23
0.0
 33
0.0
 40
0.0
 40
0.0
 40
0.0
 40
0.0
 40
1.0
 40
1.0
 40
1.0
 40
2.0
 40
2.0
 40
2.0
 40
3.0
 40
3.0
 40
3.0
 40
4.0
 40
4.0
 40
4.0
 40
5.0
 40
5.0
 40
5.0
 40
5.0
 10
10.78443243184425
 20
-4.345003727382694
 30
0.0
 10
10.90441752231355
 20
-4.345003727382694
 30
0.0
 10
10.96088954692962
 20
-4.285011182148082
 30
0.0
 10
10.96088954692962
 20
-4.182628694771564
 30
0.0
 10
10.96088954692962
 20
-4.080246207395096
 30
0.0
 10
10.89737648107644
 20
-4.041448633231337
 30
0.0
 10
10.78443243184425
 20
-4.041448633231337
 30
0.0
 10
10.78443243184425
 20
-4.041448633231337
 30
0.0
 10
10.65740630013781
 20
-4.041448633231337
 30
0.0
 10
10.65740630013781
 20
-4.041448633231337
 30
0.0
 10
10.65740630013781
 20
-4.041448633231337
 30
0.0
 10
10.65740630013781
 20
-4.345003727382694
 30
0.0
 10
10.65740630013781
 20
-4.345003727382694
 30
0.0
 10
10.65740630013781
 20
-4.345003727382694
 30
0.0
 10
10.78443243184425
 20
-4.345003727382694
 30
0.0
 10
10.78443243184425
 20
-4.345003727382694
 30
0.0
  0
SPLINE
  5
132
330
1F
100
AcDbEntity
  8
Layer 1
 62
   179
420
  2301728
370
     9
100
AcDbSpline
210
0.0
220
0.0
230
1.0
 70
    11
 71
     3
 72
    32
 73
    28
 74
     0
 42
0.0000000001
 43
0.0000000001
 12
1.0
 22
0.0
 32
0.0
 13
1.0
 23
0.0
 33
0.0
 40
0.0
 40
0.0
 40
0.0
 40
0.0
 40
1.0
 40
1.0
 40
1.0
 40
2.0
 40
2.0
 40
2.0
 40
3.0
 40
3.0
 40
3.0
 40
4.0
 40
4.0
 40
4.0
 40
5.0
 40
5.0
 40
5.0
 40
6.0
 40
6.0
 40
6.0
 40
7.0
 40
7.0
 40
7.0
 40
8.0
 40
8.0
 40
8.0
 40
9.0
 40
9.0
 40
9.0
 40
9.0
 10
13.62559250632408
 20
-5.079211894751425
 30
0.0
 10
13.57975389092323
 20
-5.103927386440899
 30
0.0
 10
13.50388307922526
 20
-5.121458142174131
 30
0.0
 10
13.40674544909681
 20
-5.121458142174131
 30
0.0
 10
13.14910081770588
 20
-5.121458142174131
 30
0.0
 10
12.9690513346424
 20
-4.990983337208718
 30
0.0
 10
12.88082277709969
 20
-4.802168476278616
 30
0.0
 10
12.64085259616106
 20
-4.747420788291998
 30
0.0
 10
12.48551860478708
 20
-4.537339108931392
 30
0.0
 10
12.48551860478708
 20
-4.217905748316727
 30
0.0
 10
12.48551860478708
 20
-3.840276026456472
 30
0.0
 10
12.7009169887553
 20
-3.628541857825919
 30
0.0
 10
13.01848231802137
 20
-3.628541857825919
 30
0.0
 10
13.33619134200651
 20
-3.628541857825919
 30
0.0
 10
13.55144603125561
 20
-3.842072210445546
 30
0.0
 10
13.55144603125561
 20
-4.217905748316727
 30
0.0
 10
13.55144603125561
 20
-4.517940321849513
 30
0.0
 10
13.41565452168258
 20
-4.719112928624402
 30
0.0
 10
13.20025613771438
 20
-4.789810730433853
 30
0.0
 10
13.25327948907142
 20
-4.862089174153652
 30
0.0
 10
13.35559012908837
 20
-4.881487961235532
 30
0.0
 10
13.44209435000155
 20
-4.881487961235532
 30
0.0
 10
13.49152533338052
 20
-4.881487961235532
 30
0.0
 10
13.53736394878138
 20
-4.872722583368941
 30
0.0
 10
13.57271284968611
 20
-4.860364837524154
 30
0.0
 10
13.57271284968611
 20
-4.860364837524154
 30
0.0
 10
13.62559250632408
 20
-5.079211894751425
 30
0.0
 10
13.62559250632408
 20
-5.079211894751425
 30
0.0
  0
SPLINE
  5
133
330
1F
100
AcDbEntity
  8
Layer 1
 62
   179
420
  2301728
370
     9
100
AcDbSpline
210
0.0
220
0.0
230
1.0
 70
    11
 71
     3
 72
    17
 73
    13
 74
     0
 42
0.0000000001
 43
0.0000000001
 12
1.0
 22
0.0
 32
0.0
 13
1.0
 23
0.0
 33
0.0
 40
0.0
 40
0.0
 40
0.0
 40
0.0
 40
1.0
 40
1.0
 40
1.0
 40
2.0
 40
2.0
 40
2.0
 40
3.0
 40
3.0
 40
3.0
 40
4.0
 40
4.0
 40
4.0
 40
4.0
 10
12.79618658753513
 20
-4.217905748316727
 30
0.0
 10
12.79618658753513
 20
-4.443793846781091
 30
0.0
 10
12.88082277709969
 20
-4.570963673206633
 30
0.0
 10
13.01848231802137
 20
-4.570963673206633
 30
0.0
 10
13.15614185894297
 20
-4.570963673206633
 30
0.0
 10
13.24092174322669
 20
-4.443793846781091
 30
0.0
 10
13.24092174322669
 20
-4.217905748316727
 30
0.0
 10
13.24092174322669
 20
-4.00969210030472
 30
0.0
 10
13.15614185894297
 20
-3.889707009835421
 30
0.0
 10
13.01848231802137
 20
-3.889707009835421
 30
0.0
 10
12.88082277709969
 20
-3.889707009835421
 30
0.0
 10
12.79618658753513
 20
-4.00969210030472
 30
0.0
 10
12.79618658753513
 20
-4.217905748316727
 30
0.0
  0
SPLINE
  5
134
330
1F
100
AcDbEntity
  8
Layer 1
 62
   179
420
  2301728
370
     9
100
AcDbSpline
210
0.0
220
0.0
230
1.0
 70
    11
 71
     3
 72
    35
 73
    31
 74
     0
 42
0.0000000001
 43
0.0000000001
 12
1.0
 22
0.0
 32
0.0
 13
1.0
 23
0.0
 33
0.0
 40
0.0
 40
0.0
 40
0.0
 40
0.0
 40
1.0
 40
1.0
 40
1.0
 40
2.0
 40
2.0
 40
2.0
 40
3.0
 40
3.0
 40
3.0
 40
4.0
 40
4.0
 40
4.0
 40
5.0
 40
5.0
 40
5.0
 40
6.0
 40
6.0
 40
6.0
 40
7.0
 40
7.0
 40
7.0
 40
8.0
 40
8.0
 40
8.0
 40
9.0
 40
9.0
 40
9.0
 40
10.0
 40
10.0
 40
10.0
 40
10.0
 10
15.51305563528439
 20
-4.948593395066862
 30
0.0
 10
15.51305563528439
 20
-4.948593395066862
 30
0.0
 10
15.3153317017685
 20
-4.563778937250365
 30
0.0
 10
15.3153317017685
 20
-4.563778937250365
 30
0.0
 10
15.3153317017685
 20
-4.563778937250365
 30
0.0
 10
15.19893897927732
 20
-4.563778937250365
 30
0.0
 10
15.19893897927732
 20
-4.563778937250365
 30
0.0
 10
15.19893897927732
 20
-4.563778937250365
 30
0.0
 10
15.19893897927732
 20
-4.948593395066862
 30
0.0
 10
15.19893897927732
 20
-4.948593395066862
 30
0.0
 10
15.19893897927732
 20
-4.948593395066862
 30
0.0
 10
14.89531203776639
 20
-4.948593395066862
 30
0.0
 10
14.89531203776639
 20
-4.948593395066862
 30
0.0
 10
14.89531203776639
 20
-4.948593395066862
 30
0.0
 10
14.89531203776639
 20
-3.801406604933163
 30
0.0
 10
14.89531203776639
 20
-3.801406604933163
 30
0.0
 10
14.89531203776639
 20
-3.801406604933163
 30
0.0
 10
15.32941378424279
 20
-3.801406604933163
 30
0.0
 10
15.32941378424279
 20
-3.801406604933163
 30
0.0
 10
15.57656870113758
 20
-3.801406604933163
 30
0.0
 10
15.78837471712771
 20
-3.886114641857325
 30
0.0
 10
15.78837471712771
 20
-4.172067132915875
 30
0.0
 10
15.78837471712771
 20
-4.336166502156503
 30
0.0
 10
15.71422824205923
 20
-4.443793846781091
 30
0.0
 10
15.60300852945655
 20
-4.503858239375277
 30
0.0
 10
15.60300852945655
 20
-4.503858239375277
 30
0.0
 10
15.85188778298094
 20
-4.948593395066862
 30
0.0
 10
15.85188778298094
 20
-4.948593395066862
 30
0.0
 10
15.85188778298094
 20
-4.948593395066862
 30
0.0
 10
15.51305563528439
 20
-4.948593395066862
 30
0.0
 10
15.51305563528439
 20
-4.948593395066862
 30
0.0
  0
SPLINE
  5
135
330
1F
100
AcDbEntity
  8
Layer 1
 62
   179
420
  2301728
370
     9
100
AcDbSpline
210
0.0
220
0.0
230
1.0
 70
    11
 71
     3
 72
    20
 73
    16
 74
     0
 42
0.0000000001
 43
0.0000000001
 12
1.0
 22
0.0
 32
0.0
 13
1.0
 23
0.0
 33
0.0
 40
0.0
 40
0.0
 40
0.0
 40
0.0
 40
1.0
 40
1.0
 40
1.0
 40
2.0
 40
2.0
 40
2.0
 40
3.0
 40
3.0
 40
3.0
 40
4.0
 40
4.0
 40
4.0
 40
5.0
 40
5.0
 40
5.0
 40
5.0
 10
15.19893897927732
 20
-4.323808756311766
 30
0.0
 10
15.19893897927732
 20
-4.323808756311766
 30
0.0
 10
15.30829066053141
 20
-4.323808756311766
 30
0.0
 10
15.30829066053141
 20
-4.323808756311766
 30
0.0
 10
15.42827575100068
 20
-4.323808756311766
 30
0.0
 10
15.49178881685387
 20
-4.270857252314221
 30
0.0
 10
15.49178881685387
 20
-4.172067132915875
 30
0.0
 10
15.49178881685387
 20
-4.073205166157954
 30
0.0
 10
15.42827575100068
 20
-4.041448633231312
 30
0.0
 10
15.30829066053141
 20
-4.041448633231312
 30
0.0
 10
15.30829066053141
 20
-4.041448633231312
 30
0.0
 10
15.19893897927732
 20
-4.041448633231312
 30
0.0
 10
15.19893897927732
 20
-4.041448633231312
 30
0.0
 10
15.19893897927732
 20
-4.041448633231312
 30
0.0
 10
15.19893897927732
 20
-4.323808756311766
 30
0.0
 10
15.19893897927732
 20
-4.323808756311766
 30
0.0
  0
SPLINE
  5
136
330
1F
100
AcDbEntity
  8
Layer 1
 62
   179
420
  2301728
370
     9
100
AcDbSpline
210
0.0
220
0.0
230
1.0
 70
    11
 71
     3
 72
    53
 73
    49
 74
     0
 42
0.0000000001
 43
0.0000000001
 12
1.0
 22
0.0
 32
0.0
 13
1.0
 23
0.0
 33
0.0
 40
0.0
 40
0.0
 40
0.0
 40
0.0
 40
1.0
 40
1.0
 40
1.0
 40
2.0
 40
2.0
 40
2.0
 40
3.0
 40
3.0
 40
3.0
 40
4.0
 40
4.0
 40
4.0
 40
5.0
 40
5.0
 40
5.0
 40
6.0
 40
6.0
 40
6.0
 40
7.0
 40
7.0
 40
7.0
 40
8.0
 40
8.0
 40
8.0
 40
9.0
 40
9.0
 40
9.0
 40
10.0
 40
10.0
 40
10.0
 40
11.0
 40
11.0
 40
11.0
 40
12.0
 40
12.0
 40
12.0
 40
13.0
 40
13.0
 40
13.0
 40
14.0
 40
14.0
 40
14.0
 40
15.0
 40
15.0
 40
15.0
 40
16.0
 40
16.0
 40
16.0
 40
16.0
 10
10.57090207922463
 20
-6.861575672896176
 30
0.0
 10
10.65194590081112
 20
-6.926813075378883
 30
0.0
 10
10.75440023554716
 20
-6.972651690779735
 30
0.0
 10
10.83903642511172
 20
-6.972651690779735
 30
0.0
 10
10.93085735063252
 20
-6.972651690779735
 30
0.0
 10
10.96965492479628
 20
-6.942763189201716
 30
0.0
 10
10.96965492479628
 20
-6.89160786919327
 30
0.0
 10
10.96965492479628
 20
-6.836860181206677
 30
0.0
 10
10.91145856355067
 20
-6.819185730754346
 30
0.0
 10
10.81432093342222
 20
-6.780388156590586
 30
0.0
 10
10.81432093342222
 20
-6.780388156590586
 30
0.0
 10
10.6714883826121
 20
-6.720323763996399
 30
0.0
 10
10.6714883826121
 20
-6.720323763996399
 30
0.0
 10
10.54791092416465
 20
-6.6708927806174
 30
0.0
 10
10.44028357954014
 20
-6.566785956611435
 30
0.0
 10
10.44028357954014
 20
-6.400890403381734
 30
0.0
 10
10.44028357954014
 20
-6.205034501214489
 30
0.0
 10
10.6167406946255
 20
-6.044455652592382
 30
0.0
 10
10.86734428477934
 20
-6.044455652592382
 30
0.0
 10
10.99796278446385
 20
-6.044455652592382
 30
0.0
 10
11.14266336662263
 20
-6.093814788611805
 30
0.0
 10
11.24856637461767
 20
-6.197993459977371
 30
0.0
 10
11.24856637461767
 20
-6.197993459977371
 30
0.0
 10
11.0966810565027
 20
-6.388532657536971
 30
0.0
 10
11.0966810565027
 20
-6.388532657536971
 30
0.0
 10
11.01908590817523
 20
-6.333856816909979
 30
0.0
 10
10.9519804743439
 20
-6.305620804601883
 30
0.0
 10
10.86734428477934
 20
-6.305620804601883
 30
0.0
 10
10.79319780971087
 20
-6.305620804601883
 30
0.0
 10
10.74735919431004
 20
-6.332060632920906
 30
0.0
 10
10.74735919431004
 20
-6.383287800288927
 30
0.0
 10
10.74735919431004
 20
-6.437963640915945
 30
0.0
 10
10.81259659679272
 20
-6.457362427997825
 30
0.0
 10
10.91677526815829
 20
-6.497956186150581
 30
0.0
 10
10.91677526815829
 20
-6.497956186150581
 30
0.0
 10
11.05615914570944
 20
-6.552703874137174
 30
0.0
 10
11.05615914570944
 20
-6.552703874137174
 30
0.0
 10
11.19913539123872
 20
-6.609175898753265
 30
0.0
 10
11.28032290754431
 20
-6.707966018151662
 30
0.0
 10
11.28032290754431
 20
-6.866892377503821
 30
0.0
 10
11.28032290754431
 20
-7.061023943041542
 30
0.0
 10
11.11794787493318
 20
-7.233888690148786
 30
0.0
 10
10.83199538387463
 20
-7.233888690148786
 30
0.0
 10
10.68729480171583
 20
-7.233888690148786
 30
0.0
 10
10.52147109584565
 20
-7.181009033510817
 30
0.0
 10
10.39789363739823
 20
-7.069789320908184
 30
0.0
 10
10.39789363739823
 20
-7.069789320908184
 30
0.0
 10
10.57090207922463
 20
-6.861575672896176
 30
0.0
 10
10.57090207922463
 20
-6.861575672896176
 30
0.0
  0
POLYLINE
  5
137
330
1F
100
AcDbEntity
  8
Layer 1
 62
   179
420
  2301728
370
     9
100
AcDb2dPolyline
 66
     1
 10
0.0
 20
0.0
 30
0.0
  0
VERTEX
  5
138
330
137
100
AcDbEntity
  8
Layer 1
 62
   179
420
  2301728
370
     9
100
AcDbVertex
100
AcDb2dVertex
 10
12.89258477544402
 20
-6.305521445871742
 30
0.0
  0
VERTEX
  5
139
330
137
100
AcDbEntity
  8
Layer 1
 62
   179
420
  2301728
370
     9
100
AcDbVertex
100
AcDb2dVertex
 10
12.58910152865221
 20
-6.305521445871742
 30
0.0
  0
VERTEX
  5
13A
330
137
100
AcDbEntity
  8
Layer 1
 62
   179
420
  2301728
370
     9
100
AcDbVertex
100
AcDb2dVertex
 10
12.58910152865221
 20
-6.051397335099359
 30
0.0
  0
VERTEX
  5
13B
330
137
100
AcDbEntity
  8
Layer 1
 62
   179
420
  2301728
370
     9
100
AcDbVertex
100
AcDb2dVertex
 10
13.49969496374673
 20
-6.051397335099359
 30
0.0
  0
VERTEX
  5
13C
330
137
100
AcDbEntity
  8
Layer 1
 62
   179
420
  2301728
370
     9
100
AcDbVertex
100
AcDb2dVertex
 10
13.49969496374673
 20
-6.305521445871742
 30
0.0
  0
VERTEX
  5
13D
330
137
100
AcDbEntity
  8
Layer 1
 62
   179
420
  2301728
370
     9
100
AcDbVertex
100
AcDb2dVertex
 10
13.1962117169549
 20
-6.305521445871742
 30
0.0
  0
VERTEX
  5
13E
330
137
100
AcDbEntity
  8
Layer 1
 62
   179
420
  2301728
370
     9
100
AcDbVertex
100
AcDb2dVertex
 10
13.1962117169549
 20
-7.198584125233057
 30
0.0
  0
VERTEX
  5
13F
330
137
100
AcDbEntity
  8
Layer 1
 62
   179
420
  2301728
370
     9
100
AcDbVertex
100
AcDb2dVertex
 10
12.89258477544402
 20
-7.198584125233057
 30
0.0
  0
VERTEX
  5
140
330
137
100
AcDbEntity
  8
Layer 1
 62
   179
420
  2301728
370
     9
100
AcDbVertex
100
AcDb2dVertex
 10
12.89258477544402
 20
-6.305521445871742
 30
0.0
  0
SEQEND
  5
141
330
137
100
AcDbEntity
  8
Layer 1
 62
   179
420
  2301728
370
     9
  0
POLYLINE
  5
142
330
1F
100
AcDbEntity
  8
Layer 1
 62
   179
420
  2301728
370
     9
100
AcDb2dPolyline
 66
     1
 10
0.0
 20
0.0
 30
0.0
  0
VERTEX
  5
143
330
142
100
AcDbEntity
  8
Layer 1
 62
   179
420
  2301728
370
     9
100
AcDbVertex
100
AcDb2dVertex
 10
16.30556123737372
 20
-7.625
 30
0.0
  0
VERTEX
  5
144
330
142
100
AcDbEntity
  8
Layer 1
 62
   179
420
  2301728
370
     9
100
AcDbVertex
100
AcDb2dVertex
 10
14.30554987373736
 20
-7.625
 30
0.0
  0
VERTEX
  5
145
330
142
100
AcDbEntity
  8
Layer 1
 62
   179
420
  2301728
370
     9
100
AcDbVertex
100
AcDb2dVertex
 10
14.30554987373736
 20
-5.625
 30
0.0
  0
VERTEX
  5
146
330
142
100
AcDbEntity
  8
Layer 1
 62
   179
420
  2301728
370
     9
100
AcDbVertex
100
AcDb2dVertex
 10
16.30556123737372
 20
-5.625
 30
0.0
  0
VERTEX
  5
147
330
142
100
AcDbEntity
  8
Layer 1
 62
   179
420
  2301728
370
     9
100
AcDbVertex
100
AcDb2dVertex
 10
16.30556123737372
 20
-7.625
 30
0.0
  0
SEQEND
  5
148
330
142
100
AcDbEntity
  8
Layer 1
 62
   179
420
  2301728
370
     9
  0
POLYLINE
  5
149
330
1F
100
AcDbEntity
  8
Layer 1
 62
   179
420
  2301728
370
     9
100
AcDb2dPolyline
 66
     1
 10
0.0
 20
0.0
 30
0.0
  0
VERTEX
  5
14A
330
149
100
AcDbEntity
  8
Layer 1
 62
   179
420
  2301728
370
     9
100
AcDbVertex
100
AcDb2dVertex
 10
11.80556123737372
 20
-9.891380051791176
 30
0.0
  0
VERTEX
  5
14B
330
149
100
AcDbEntity
  8
Layer 1
 62
   179
420
  2301728
370
     9
100
AcDbVertex
100
AcDb2dVertex
 10
9.805549873737391
 20
-9.891380051791176
 30
0.0
  0
VERTEX
  5
14C
330
149
100
AcDbEntity
  8
Layer 1
 62
   179
420
  2301728
370
     9
100
AcDbVertex
100
AcDb2dVertex
 10
9.805549873737391
 20
-7.891380051791177
 30
0.0
  0
VERTEX
  5
14D
330
149
100
AcDbEntity
  8
Layer 1
 62
   179
420
  2301728
370
     9
100
AcDbVertex
100
AcDb2dVertex
 10
11.80556123737372
 20
-7.891380051791177
 30
0.0
  0
VERTEX
  5
14E
330
149
100
AcDbEntity
  8
Layer 1
 62
   179
420
  2301728
370
     9
100
AcDbVertex
100
AcDb2dVertex
 10
11.80556123737372
 20
-9.891380051791176
 30
0.0
  0
SEQEND
  5
14F
330
149
100
AcDbEntity
  8
Layer 1
 62
   179
420
  2301728
370
     9
  0
POLYLINE
  5
150
330
1F
100
AcDbEntity
  8
Layer 1
 62
   179
420
  2301728
370
     9
100
AcDb2dPolyline
 66
     1
 10
0.0
 20
0.0
 30
0.0
  0
VERTEX
  5
151
330
150
100
AcDbEntity
  8
Layer 1
 62
   179
420
  2301728
370
     9
100
AcDbVertex
100
AcDb2dVertex
 10
14.05556123737374
 20
-9.891380051791176
 30
0.0
  0
VERTEX
  5
152
330
150
100
AcDbEntity
  8
Layer 1
 62
   179
420
  2301728
370
     9
100
AcDbVertex
100
AcDb2dVertex
 10
12.05554987373734
 20
-9.891380051791176
 30
0.0
  0
VERTEX
  5
153
330
150
100
AcDbEntity
  8
Layer 1
 62
   179
420
  2301728
370
     9
100
AcDbVertex
100
AcDb2dVertex
 10
12.05554987373734
 20
-7.891380051791177
 30
0.0
  0
VERTEX
  5
154
330
150
100
AcDbEntity
  8
Layer 1
 62
   179
420
  2301728
370
     9
100
AcDbVertex
100
AcDb2dVertex
 10
14.05556123737374
 20
-7.891380051791177
 30
0.0
  0
VERTEX
  5
155
330
150
100
AcDbEntity
  8
Layer 1
 62
   179
420
  2301728
370
     9
100
AcDbVertex
100
AcDb2dVertex
 10
14.05556123737374
 20
-9.891380051791176
 30
0.0
  0
SEQEND
  5
156
330
150
100
AcDbEntity
  8
Layer 1
 62
   179
420
  2301728
370
     9
  0
POLYLINE
  5
157
330
1F
100
AcDbEntity
  8
Layer 1
 62
   179
420
  2301728
370
     9
100
AcDb2dPolyline
 66
     1
 10
0.0
 20
0.0
 30
0.0
  0
VERTEX
  5
158
330
157
100
AcDbEntity
  8
Layer 1
 62
   179
420
  2301728
370
     9
100
AcDbVertex
100
AcDb2dVertex
 10
16.30556123737367
 20
-9.875000000000025
 30
0.0
  0
VERTEX
  5
159
330
157
100
AcDbEntity
  8
Layer 1
 62
   179
420
  2301728
370
     9
100
AcDbVertex
100
AcDb2dVertex
 10
14.30554987373742
 20
-9.875000000000025
 30
0.0
  0
VERTEX
  5
15A
330
157
100
AcDbEntity
  8
Layer 1
 62
   179
420
  2301728
370
     9
100
AcDbVertex
100
AcDb2dVertex
 10
14.30554987373742
 20
-7.875000000000025
 30
0.0
  0
VERTEX
  5
15B
330
157
100
AcDbEntity
  8
Layer 1
 62
   179
420
  2301728
370
     9
100
AcDbVertex
100
AcDb2dVertex
 10
16.30556123737367
 20
-7.875000000000025
 30
0.0
  0
VERTEX
  5
15C
330
157
100
AcDbEntity
  8
Layer 1
 62
   179
420
  2301728
370
     9
100
AcDbVertex
100
AcDb2dVertex
 10
16.30556123737367
 20
-9.875000000000025
 30
0.0
  0
SEQEND
  5
15D
330
157
100
AcDbEntity
  8
Layer 1
 62
   179
420
  2301728
370
     9
  0
POLYLINE
  5
15E
330
1F
100
AcDbEntity
  8
Layer 1
 62
   179
420
  2301728
370
     9
100
AcDb2dPolyline
 66
     1
 10
0.0
 20
0.0
 30
0.0
  0
VERTEX
  5
15F
330
15E
100
AcDbEntity
  8
Layer 1
 62
   179
420
  2301728
370
     9
100
AcDbVertex
100
AcDb2dVertex
 10
25.14005481902356
 20
-3.125
 30
0.0
  0
VERTEX
  5
160
330
15E
100
AcDbEntity
  8
Layer 1
 62
   179
420
  2301728
370
     9
100
AcDbVertex
100
AcDb2dVertex
 10
23.14004345538721
 20
-3.125
 30
0.0
  0
VERTEX
  5
161
330
15E
100
AcDbEntity
  8
Layer 1
 62
   179
420
  2301728
370
     9
100
AcDbVertex
100
AcDb2dVertex
 10
23.14004345538721
 20
-1.125
 30
0.0
  0
VERTEX
  5
162
330
15E
100
AcDbEntity
  8
Layer 1
 62
   179
420
  2301728
370
     9
100
AcDbVertex
100
AcDb2dVertex
 10
25.14005481902356
 20
-1.125
 30
0.0
  0
VERTEX
  5
163
330
15E
100
AcDbEntity
  8
Layer 1
 62
   179
420
  2301728
370
     9
100
AcDbVertex
100
AcDb2dVertex
 10
25.14005481902356
 20
-3.125
 30
0.0
  0
SEQEND
  5
164
330
15E
100
AcDbEntity
  8
Layer 1
 62
   179
420
  2301728
370
     9
  0
POLYLINE
  5
165
330
1F
100
AcDbEntity
  8
Layer 1
 62
   179
420
  2301728
370
     9
100
AcDb2dPolyline
 66
     1
 10
0.0
 20
0.0
 30
0.0
  0
VERTEX
  5
166
330
165
100
AcDbEntity
  8
Layer 1
 62
   179
420
  2301728
370
     9
100
AcDbVertex
100
AcDb2dVertex
 10
22.89005481902359
 20
-3.125
 30
0.0
  0
VERTEX
  5
167
330
165
100
AcDbEntity
  8
Layer 1
 62
   179
420
  2301728
370
     9
100
AcDbVertex
100
AcDb2dVertex
 10
20.89004345538726
 20
-3.125
 30
0.0
  0
VERTEX
  5
168
330
165
100
AcDbEntity
  8
Layer 1
 62
   179
420
  2301728
370
     9
100
AcDbVertex
100
AcDb2dVertex
 10
20.89004345538726
 20
-1.125
 30
0.0
  0
VERTEX
  5
169
330
165
100
AcDbEntity
  8
Layer 1
 62
   179
420
  2301728
370
     9
100
AcDbVertex
100
AcDb2dVertex
 10
22.89005481902359
 20
-1.125
 30
0.0
  0
VERTEX
  5
16A
330
165
100
AcDbEntity
  8
Layer 1
 62
   179
420
  2301728
370
     9
100
AcDbVertex
100
AcDb2dVertex
 10
22.89005481902359
 20
-3.125
 30
0.0
  0
SEQEND
  5
16B
330
165
100
AcDbEntity
  8
Layer 1
 62
   179
420
  2301728
370
     9
  0
POLYLINE
  5
16C
330
1F
100
AcDbEntity
  8
Layer 1
 62
   179
420
  2301728
370
     9
100
AcDb2dPolyline
 66
     1
 10
0.0
 20
0.0
 30
0.0
  0
VERTEX
  5
16D
330
16C
100
AcDbEntity
  8
Layer 1
 62
   179
420
  2301728
370
     9
100
AcDbVertex
100
AcDb2dVertex
 10
20.64005481902364
 20
-3.125
 30
0.0
  0
VERTEX
  5
16E
330
16C
100
AcDbEntity
  8
Layer 1
 62
   179
420
  2301728
370
     9
100
AcDbVertex
100
AcDb2dVertex
 10
18.64004345538723
 20
-3.125
 30
0.0
  0
VERTEX
  5
16F
330
16C
100
AcDbEntity
  8
Layer 1
 62
   179
420
  2301728
370
     9
100
AcDbVertex
100
AcDb2dVertex
 10
18.64004345538723
 20
-1.125
 30
0.0
  0
VERTEX
  5
170
330
16C
100
AcDbEntity
  8
Layer 1
 62
   179
420
  2301728
370
     9
100
AcDbVertex
100
AcDb2dVertex
 10
20.64005481902364
 20
-1.125
 30
0.0
  0
VERTEX
  5
171
330
16C
100
AcDbEntity
  8
Layer 1
 62
   179
420
  2301728
370
     9
100
AcDbVertex
100
AcDb2dVertex
 10
20.64005481902364
 20
-3.125
 30
0.0
  0
SEQEND
  5
172
330
16C
100
AcDbEntity
  8
Layer 1
 62
   179
420
  2301728
370
     9
  0
POLYLINE
  5
173
330
1F
100
AcDbEntity
  8
Layer 1
 62
   179
420
  2301728
370
     9
100
AcDb2dPolyline
 66
     1
 10
0.0
 20
0.0
 30
0.0
  0
VERTEX
  5
174
330
173
100
AcDbEntity
  8
Layer 1
 62
   179
420
  2301728
370
     9
100
AcDbVertex
100
AcDb2dVertex
 10
20.64005481902351
 20
-5.375
 30
0.0
  0
VERTEX
  5
175
330
173
100
AcDbEntity
  8
Layer 1
 62
   179
420
  2301728
370
     9
100
AcDbVertex
100
AcDb2dVertex
 10
18.64004345538726
 20
-5.375
 30
0.0
  0
VERTEX
  5
176
330
173
100
AcDbEntity
  8
Layer 1
 62
   179
420
  2301728
370
     9
100
AcDbVertex
100
AcDb2dVertex
 10
18.64004345538726
 20
-3.375
 30
0.0
  0
VERTEX
  5
177
330
173
100
AcDbEntity
  8
Layer 1
 62
   179
420
  2301728
370
     9
100
AcDbVertex
100
AcDb2dVertex
 10
20.64005481902351
 20
-3.375
 30
0.0
  0
VERTEX
  5
178
330
173
100
AcDbEntity
  8
Layer 1
 62
   179
420
  2301728
370
     9
100
AcDbVertex
100
AcDb2dVertex
 10
20.64005481902351
 20
-5.375
 30
0.0
  0
SEQEND
  5
179
330
173
100
AcDbEntity
  8
Layer 1
 62
   179
420
  2301728
370
     9
  0
POLYLINE
  5
17A
330
1F
100
AcDbEntity
  8
Layer 1
 62
   179
420
  2301728
370
     9
100
AcDb2dPolyline
 66
     1
 10
0.0
 20
0.0
 30
0.0
  0
VERTEX
  5
17B
330
17A
100
AcDbEntity
  8
Layer 1
 62
   179
420
  2301728
370
     9
100
AcDbVertex
100
AcDb2dVertex
 10
22.89005481902359
 20
-5.374999999999974
 30
0.0
  0
VERTEX
  5
17C
330
17A
100
AcDbEntity
  8
Layer 1
 62
   179
420
  2301728
370
     9
100
AcDbVertex
100
AcDb2dVertex
 10
20.89004345538723
 20
-5.374999999999974
 30
0.0
  0
VERTEX
  5
17D
330
17A
100
AcDbEntity
  8
Layer 1
 62
   179
420
  2301728
370
     9
100
AcDbVertex
100
AcDb2dVertex
 10
20.89004345538723
 20
-3.374999999999975
 30
0.0
  0
VERTEX
  5
17E
330
17A
100
AcDbEntity
  8
Layer 1
 62
   179
420
  2301728
370
     9
100
AcDbVertex
100
AcDb2dVertex
 10
22.89005481902359
 20
-3.374999999999975
 30
0.0
  0
VERTEX
  5
17F
330
17A
100
AcDbEntity
  8
Layer 1
 62
   179
420
  2301728
370
     9
100
AcDbVertex
100
AcDb2dVertex
 10
22.89005481902359
 20
-5.374999999999974
 30
0.0
  0
SEQEND
  5
180
330
17A
100
AcDbEntity
  8
Layer 1
 62
   179
420
  2301728
370
     9
  0
POLYLINE
  5
181
330
1F
100
AcDbEntity
  8
Layer 1
 62
   179
420
  2301728
370
     9
100
AcDb2dPolyline
 66
     1
 10
0.0
 20
0.0
 30
0.0
  0
VERTEX
  5
182
330
181
100
AcDbEntity
  8
Layer 1
 62
   179
420
  2301728
370
     9
100
AcDbVertex
100
AcDb2dVertex
 10
25.14005481902359
 20
-5.375
 30
0.0
  0
VERTEX
  5
183
330
181
100
AcDbEntity
  8
Layer 1
 62
   179
420
  2301728
370
     9
100
AcDbVertex
100
AcDb2dVertex
 10
23.14004345538726
 20
-5.375
 30
0.0
  0
VERTEX
  5
184
330
181
100
AcDbEntity
  8
Layer 1
 62
   179
420
  2301728
370
     9
100
AcDbVertex
100
AcDb2dVertex
 10
23.14004345538726
 20
-3.375
 30
0.0
  0
VERTEX
  5
185
330
181
100
AcDbEntity
  8
Layer 1
 62
   179
420
  2301728
370
     9
100
AcDbVertex
100
AcDb2dVertex
 10
25.14005481902359
 20
-3.375
 30
0.0
  0
VERTEX
  5
186
330
181
100
AcDbEntity
  8
Layer 1
 62
   179
420
  2301728
370
     9
100
AcDbVertex
100
AcDb2dVertex
 10
25.14005481902359
 20
-5.375
 30
0.0
  0
SEQEND
  5
187
330
181
100
AcDbEntity
  8
Layer 1
 62
   179
420
  2301728
370
     9
  0
POLYLINE
  5
188
330
1F
100
AcDbEntity
  8
Layer 1
 62
   179
420
  2301728
370
     9
100
AcDb2dPolyline
 66
     1
 10
0.0
 20
0.0
 30
0.0
  0
VERTEX
  5
189
330
188
100
AcDbEntity
  8
Layer 1
 62
   179
420
  2301728
370
     9
100
AcDbVertex
100
AcDb2dVertex
 10
20.64005481902361
 20
-7.639156935775796
 30
0.0
  0
VERTEX
  5
18A
330
188
100
AcDbEntity
  8
Layer 1
 62
   179
420
  2301728
370
     9
100
AcDbVertex
100
AcDb2dVertex
 10
18.64004345538721
 20
-7.639156935775796
 30
0.0
  0
VERTEX
  5
18B
330
188
100
AcDbEntity
  8
Layer 1
 62
   179
420
  2301728
370
     9
100
AcDbVertex
100
AcDb2dVertex
 10
18.64004345538721
 20
-5.639156935775796
 30
0.0
  0
VERTEX
  5
18C
330
188
100
AcDbEntity
  8
Layer 1
 62
   179
420
  2301728
370
     9
100
AcDbVertex
100
AcDb2dVertex
 10
20.64005481902361
 20
-5.639156935775796
 30
0.0
  0
VERTEX
  5
18D
330
188
100
AcDbEntity
  8
Layer 1
 62
   179
420
  2301728
370
     9
100
AcDbVertex
100
AcDb2dVertex
 10
20.64005481902361
 20
-7.639156935775796
 30
0.0
  0
SEQEND
  5
18E
330
188
100
AcDbEntity
  8
Layer 1
 62
   179
420
  2301728
370
     9
  0
POLYLINE
  5
18F
330
1F
100
AcDbEntity
  8
Layer 1
 62
   179
420
  2301728
370
     9
100
AcDb2dPolyline
 66
     1
 10
0.0
 20
0.0
 30
0.0
  0
VERTEX
  5
190
330
18F
100
AcDbEntity
  8
Layer 1
 62
   179
420
  2301728
370
     9
100
AcDbVertex
100
AcDb2dVertex
 10
22.89005481902354
 20
-7.639172171370596
 30
0.0
  0
VERTEX
  5
191
330
18F
100
AcDbEntity
  8
Layer 1
 62
   179
420
  2301728
370
     9
100
AcDbVertex
100
AcDb2dVertex
 10
20.89004345538729
 20
-7.639172171370596
 30
0.0
  0
VERTEX
  5
192
330
18F
100
AcDbEntity
  8
Layer 1
 62
   179
420
  2301728
370
     9
100
AcDbVertex
100
AcDb2dVertex
 10
20.89004345538729
 20
-5.639172171370597
 30
0.0
  0
VERTEX
  5
193
330
18F
100
AcDbEntity
  8
Layer 1
 62
   179
420
  2301728
370
     9
100
AcDbVertex
100
AcDb2dVertex
 10
22.89005481902354
 20
-5.639172171370597
 30
0.0
  0
VERTEX
  5
194
330
18F
100
AcDbEntity
  8
Layer 1
 62
   179
420
  2301728
370
     9
100
AcDbVertex
100
AcDb2dVertex
 10
22.89005481902354
 20
-7.639172171370596
 30
0.0
  0
SEQEND
  5
195
330
18F
100
AcDbEntity
  8
Layer 1
 62
   179
420
  2301728
370
     9
  0
POLYLINE
  5
196
330
1F
100
AcDbEntity
  8
Layer 1
 62
   179
420
  2301728
370
     9
100
AcDb2dPolyline
 66
     1
 10
0.0
 20
0.0
 30
0.0
  0
VERTEX
  5
197
330
196
100
AcDbEntity
  8
Layer 1
 62
   179
420
  2301728
370
     9
100
AcDbVertex
100
AcDb2dVertex
 10
25.14005481902359
 20
-7.625
 30
0.0
  0
VERTEX
  5
198
330
196
100
AcDbEntity
  8
Layer 1
 62
   179
420
  2301728
370
     9
100
AcDbVertex
100
AcDb2dVertex
 10
23.14004345538723
 20
-7.625
 30
0.0
  0
VERTEX
  5
199
330
196
100
AcDbEntity
  8
Layer 1
 62
   179
420
  2301728
370
     9
100
AcDbVertex
100
AcDb2dVertex
 10
23.14004345538723
 20
-5.625
 30
0.0
  0
VERTEX
  5
19A
330
196
100
AcDbEntity
  8
Layer 1
 62
   179
420
  2301728
370
     9
100
AcDbVertex
100
AcDb2dVertex
 10
25.14005481902359
 20
-5.625
 30
0.0
  0
VERTEX
  5
19B
330
196
100
AcDbEntity
  8
Layer 1
 62
   179
420
  2301728
370
     9
100
AcDbVertex
100
AcDb2dVertex
 10
25.14005481902359
 20
-7.625
 30
0.0
  0
SEQEND
  5
19C
330
196
100
AcDbEntity
  8
Layer 1
 62
   179
420
  2301728
370
     9
  0
POLYLINE
  5
19D
330
1F
100
AcDbEntity
  8
Layer 1
 62
   179
420
  2301728
370
     9
100
AcDb2dPolyline
 66
     1
 10
0.0
 20
0.0
 30
0.0
  0
VERTEX
  5
19E
330
19D
100
AcDbEntity
  8
Layer 1
 62
   179
420
  2301728
370
     9
100
AcDbVertex
100
AcDb2dVertex
 10
20.64005481902359
 20
-9.912517716044299
 30
0.0
  0
VERTEX
  5
19F
330
19D
100
AcDbEntity
  8
Layer 1
 62
   179
420
  2301728
370
     9
100
AcDbVertex
100
AcDb2dVertex
 10
18.64004345538726
 20
-9.912517716044299
 30
0.0
  0
VERTEX
  5
1A0
330
19D
100
AcDbEntity
  8
Layer 1
 62
   179
420
  2301728
370
     9
100
AcDbVertex
100
AcDb2dVertex
 10
18.64004345538726
 20
-7.912517716044299
 30
0.0
  0
VERTEX
  5
1A1
330
19D
100
AcDbEntity
  8
Layer 1
 62
   179
420
  2301728
370
     9
100
AcDbVertex
100
AcDb2dVertex
 10
20.64005481902359
 20
-7.912517716044299
 30
0.0
  0
VERTEX
  5
1A2
330
19D
100
AcDbEntity
  8
Layer 1
 62
   179
420
  2301728
370
     9
100
AcDbVertex
100
AcDb2dVertex
 10
20.64005481902359
 20
-9.912517716044299
 30
0.0
  0
SEQEND
  5
1A3
330
19D
100
AcDbEntity
  8
Layer 1
 62
   179
420
  2301728
370
     9
  0
POLYLINE
  5
1A4
330
1F
100
AcDbEntity
  8
Layer 1
 62
   179
420
  2301728
370
     9
100
AcDb2dPolyline
 66
     1
 10
0.0
 20
0.0
 30
0.0
  0
VERTEX
  5
1A5
330
1A4
100
AcDbEntity
  8
Layer 1
 62
   179
420
  2301728
370
     9
100
AcDbVertex
100
AcDb2dVertex
 10
22.89005481902361
 20
-9.875000000000025
 30
0.0
  0
VERTEX
  5
1A6
330
1A4
100
AcDbEntity
  8
Layer 1
 62
   179
420
  2301728
370
     9
100
AcDbVertex
100
AcDb2dVertex
 10
20.89004345538721
 20
-9.875000000000025
 30
0.0
  0
VERTEX
  5
1A7
330
1A4
100
AcDbEntity
  8
Layer 1
 62
   179
420
  2301728
370
     9
100
AcDbVertex
100
AcDb2dVertex
 10
20.89004345538721
 20
-7.875000000000025
 30
0.0
  0
VERTEX
  5
1A8
330
1A4
100
AcDbEntity
  8
Layer 1
 62
   179
420
  2301728
370
     9
100
AcDbVertex
100
AcDb2dVertex
 10
22.89005481902361
 20
-7.875000000000025
 30
0.0
  0
VERTEX
  5
1A9
330
1A4
100
AcDbEntity
  8
Layer 1
 62
   179
420
  2301728
370
     9
100
AcDbVertex
100
AcDb2dVertex
 10
22.89005481902361
 20
-9.875000000000025
 30
0.0
  0
SEQEND
  5
1AA
330
1A4
100
AcDbEntity
  8
Layer 1
 62
   179
420
  2301728
370
     9
  0
POLYLINE
  5
1AB
330
1F
100
AcDbEntity
  8
Layer 1
 62
   179
420
  2301728
370
     9
100
AcDb2dPolyline
 66
     1
 10
0.0
 20
0.0
 30
0.0
  0
VERTEX
  5
1AC
330
1AB
100
AcDbEntity
  8
Layer 1
 62
   179
420
  2301728
370
     9
100
AcDbVertex
100
AcDb2dVertex
 10
25.14005481902356
 20
-9.891394592332945
 30
0.0
  0
VERTEX
  5
1AD
330
1AB
100
AcDbEntity
  8
Layer 1
 62
   179
420
  2301728
370
     9
100
AcDbVertex
100
AcDb2dVertex
 10
23.14004345538731
 20
-9.891394592332945
 30
0.0
  0
VERTEX
  5
1AE
330
1AB
100
AcDbEntity
  8
Layer 1
 62
   179
420
  2301728
370
     9
100
AcDbVertex
100
AcDb2dVertex
 10
23.14004345538731
 20
-7.891394592332946
 30
0.0
  0
VERTEX
  5
1AF
330
1AB
100
AcDbEntity
  8
Layer 1
 62
   179
420
  2301728
370
     9
100
AcDbVertex
100
AcDb2dVertex
 10
25.14005481902356
 20
-7.891394592332946
 30
0.0
  0
VERTEX
  5
1B0
330
1AB
100
AcDbEntity
  8
Layer 1
 62
   179
420
  2301728
370
     9
100
AcDbVertex
100
AcDb2dVertex
 10
25.14005481902356
 20
-9.891394592332945
 30
0.0
  0
SEQEND
  5
1B1
330
1AB
100
AcDbEntity
  8
Layer 1
 62
   179
420
  2301728
370
     9
  0
SPLINE
  5
1B2
330
1F
100
AcDbEntity
  8
Layer 1
 62
   179
420
  2301728
370
     9
100
AcDbSpline
210
0.0
220
0.0
230
1.0
 70
    11
 71
     3
 72
    35
 73
    31
 74
     0
 42
0.0000000001
 43
0.0000000001
 12
1.0
 22
0.0
 32
0.0
 13
1.0
 23
0.0
 33
0.0
 40
0.0
 40
0.0
 40
0.0
 40
0.0
 40
1.0
 40
1.0
 40
1.0
 40
2.0
 40
2.0
 40
2.0
 40
3.0
 40
3.0
 40
3.0
 40
4.0
 40
4.0
 40
4.0
 40
5.0
 40
5.0
 40
5.0
 40
6.0
 40
6.0
 40
6.0
 40
7.0
 40
7.0
 40
7.0
 40
8.0
 40
8.0
 40
8.0
 40
9.0
 40
9.0
 40
9.0
 40
10.0
 40
10.0
 40
10.0
 40
10.0
 10
14.83258438755593
 20
-6.030283481221785
 30
0.0
 10
14.83258438755593
 20
-6.030283481221785
 30
0.0
 10
15.13621132906681
 20
-6.030283481221785
 30
0.0
 10
15.13621132906681
 20
-6.030283481221785
 30
0.0
 10
15.13621132906681
 20
-6.030283481221785
 30
0.0
 10
15.13621132906681
 20
-6.658588640595477
 30
0.0
 10
15.13621132906681
 20
-6.658588640595477
 30
0.0
 10
15.13621132906681
 20
-6.863353615348437
 30
0.0
 10
15.18909098570478
 20
-6.937356395697785
 30
0.0
 10
15.30907607617408
 20
-6.937356395697785
 30
0.0
 10
15.42906116664335
 20
-6.937356395697785
 30
0.0
 10
15.48553319125944
 20
-6.863353615348437
 30
0.0
 10
15.48553319125944
 20
-6.658588640595477
 30
0.0
 10
15.48553319125944
 20
-6.658588640595477
 30
0.0
 10
15.48553319125944
 20
-6.030283481221785
 30
0.0
 10
15.48553319125944
 20
-6.030283481221785
 30
0.0
 10
15.48553319125944
 20
-6.030283481221785
 30
0.0
 10
15.77852672355513
 20
-6.030283481221785
 30
0.0
 10
15.77852672355513
 20
-6.030283481221785
 30
0.0
 10
15.77852672355513
 20
-6.030283481221785
 30
0.0
 10
15.77852672355513
 20
-6.623239739690714
 30
0.0
 10
15.77852672355513
 20
-6.623239739690714
 30
0.0
 10
15.77852672355513
 20
-7.015095238744379
 30
0.0
 10
15.63023377341824
 20
-7.198593395066837
 30
0.0
 10
15.30907607617408
 20
-7.198593395066837
 30
0.0
 10
14.98791837892991
 20
-7.198593395066837
 30
0.0
 10
14.83258438755593
 20
-7.015095238744379
 30
0.0
 10
14.83258438755593
 20
-6.623239739690714
 30
0.0
 10
14.83258438755593
 20
-6.623239739690714
 30
0.0
 10
14.83258438755593
 20
-6.030283481221785
 30
0.0
 10
14.83258438755593
 20
-6.030283481221785
 30
0.0
  0
SPLINE
  5
1B3
330
1F
100
AcDbEntity
  8
Layer 1
 62
   179
420
  2301728
370
     9
100
AcDbSpline
210
0.0
220
0.0
230
1.0
 70
    11
 71
     3
 72
    35
 73
    31
 74
     0
 42
0.0000000001
 43
0.0000000001
 12
1.0
 22
0.0
 32
0.0
 13
1.0
 23
0.0
 33
0.0
 40
0.0
 40
0.0
 40
0.0
 40
0.0
 40
1.0
 40
1.0
 40
1.0
 40
2.0
 40
2.0
 40
2.0
 40
3.0
 40
3.0
 40
3.0
 40
4.0
 40
4.0
 40
4.0
 40
5.0
 40
5.0
 40
5.0
 40
6.0
 40
6.0
 40
6.0
 40
7.0
 40
7.0
 40
7.0
 40
8.0
 40
8.0
 40
8.0
 40
9.0
 40
9.0
 40
9.0
 40
10.0
 40
10.0
 40
10.0
 40
10.0
 10
10.28315340417698
 20
-8.317786656724314
 30
0.0
 10
10.28315340417698
 20
-8.317786656724314
 30
0.0
 10
10.60431110142114
 20
-8.317786656724314
 30
0.0
 10
10.60431110142114
 20
-8.317786656724314
 30
0.0
 10
10.60431110142114
 20
-8.317786656724314
 30
0.0
 10
10.72429619189049
 20
-8.818993837032014
 30
0.0
 10
10.72429619189049
 20
-8.818993837032014
 30
0.0
 10
10.75619641953616
 20
-8.940775111490362
 30
0.0
 10
10.77731954324753
 20
-9.059035865330138
 30
0.0
 10
10.80907607617415
 20
-9.182613323777584
 30
0.0
 10
10.80907607617415
 20
-9.182613323777584
 30
0.0
 10
10.8161171174113
 20
-9.182613323777584
 30
0.0
 10
10.8161171174113
 20
-9.182613323777584
 30
0.0
 10
10.84787365033786
 20
-9.059035865330138
 30
0.0
 10
10.87086480539789
 20
-8.940775111490362
 30
0.0
 10
10.90089700169498
 20
-8.818993837032014
 30
0.0
 10
10.90089700169498
 20
-8.818993837032014
 30
0.0
 10
11.01728972418616
 20
-8.317786656724314
 30
0.0
 10
11.01728972418616
 20
-8.317786656724314
 30
0.0
 10
11.01728972418616
 20
-8.317786656724314
 30
0.0
 10
11.32795770693416
 20
-8.317786656724314
 30
0.0
 10
11.32795770693416
 20
-8.317786656724314
 30
0.0
 10
11.32795770693416
 20
-8.317786656724314
 30
0.0
 10
10.98912555923766
 20
-9.464973446858012
 30
0.0
 10
10.98912555923766
 20
-9.464973446858012
 30
0.0
 10
10.98912555923766
 20
-9.464973446858012
 30
0.0
 10
10.62198555187352
 20
-9.464973446858012
 30
0.0
 10
10.62198555187352
 20
-9.464973446858012
 30
0.0
 10
10.62198555187352
 20
-9.464973446858012
 30
0.0
 10
10.28315340417698
 20
-8.317786656724314
 30
0.0
 10
10.28315340417698
 20
-8.317786656724314
 30
0.0
  0
SPLINE
  5
1B4
330
1F
100
AcDbEntity
  8
Layer 1
 62
   179
420
  2301728
370
     9
100
AcDbSpline
210
0.0
220
0.0
230
1.0
 70
    11
 71
     3
 72
    71
 73
    67
 74
     0
 42
0.0000000001
 43
0.0000000001
 12
1.0
 22
0.0
 32
0.0
 13
1.0
 23
0.0
 33
0.0
 40
0.0
 40
0.0
 40
0.0
 40
0.0
 40
1.0
 40
1.0
 40
1.0
 40
2.0
 40
2.0
 40
2.0
 40
3.0
 40
3.0
 40
3.0
 40
4.0
 40
4.0
 40
4.0
 40
5.0
 40
5.0
 40
5.0
 40
6.0
 40
6.0
 40
6.0
 40
7.0
 40
7.0
 40
7.0
 40
8.0
 40
8.0
 40
8.0
 40
9.0
 40
9.0
 40
9.0
 40
10.0
 40
10.0
 40
10.0
 40
11.0
 40
11.0
 40
11.0
 40
12.0
 40
12.0
 40
12.0
 40
13.0
 40
13.0
 40
13.0
 40
14.0
 40
14.0
 40
14.0
 40
15.0
 40
15.0
 40
15.0
 40
16.0
 40
16.0
 40
16.0
 40
17.0
 40
17.0
 40
17.0
 40
18.0
 40
18.0
 40
18.0
 40
19.0
 40
19.0
 40
19.0
 40
20.0
 40
20.0
 40
20.0
 40
21.0
 40
21.0
 40
21.0
 40
22.0
 40
22.0
 40
22.0
 40
22.0
 10
12.34613472723585
 20
-8.30722509486865
 30
0.0
 10
12.34613472723585
 20
-8.30722509486865
 30
0.0
 10
12.6566590152648
 20
-8.30722509486865
 30
0.0
 10
12.6566590152648
 20
-8.30722509486865
 30
0.0
 10
12.6566590152648
 20
-8.30722509486865
 30
0.0
 10
12.72017208111801
 20
-8.808432275176326
 30
0.0
 10
12.72017208111801
 20
-8.808432275176326
 30
0.0
 10
12.73252982696277
 20
-8.928489213005175
 30
0.0
 10
12.74675560415613
 20
-9.048474303474475
 30
0.0
 10
12.75911335000082
 20
-9.168459393943774
 30
0.0
 10
12.75911335000082
 20
-9.168459393943774
 30
0.0
 10
12.76615439123796
 20
-9.168459393943774
 30
0.0
 10
12.76615439123796
 20
-9.168459393943774
 30
0.0
 10
12.78727751494934
 20
-9.048474303474475
 30
0.0
 10
12.80840063866071
 20
-8.926764876375728
 30
0.0
 10
12.82966745709119
 20
-8.808432275176326
 30
0.0
 10
12.82966745709119
 20
-8.808432275176326
 30
0.0
 10
12.93901913834528
 20
-8.30722509486865
 30
0.0
 10
12.93901913834528
 20
-8.30722509486865
 30
0.0
 10
12.93901913834528
 20
-8.30722509486865
 30
0.0
 10
13.19321509647724
 20
-8.30722509486865
 30
0.0
 10
13.19321509647724
 20
-8.30722509486865
 30
0.0
 10
13.19321509647724
 20
-8.30722509486865
 30
0.0
 10
13.30256677773125
 20
-8.808432275176326
 30
0.0
 10
13.30256677773125
 20
-8.808432275176326
 30
0.0
 10
13.32383359616167
 20
-8.92317250839753
 30
0.0
 10
13.34495671987305
 20
-9.046749966845
 30
0.0
 10
13.36607984358445
 20
-9.168459393943774
 30
0.0
 10
13.36607984358445
 20
-9.168459393943774
 30
0.0
 10
13.37312088482152
 20
-9.168459393943774
 30
0.0
 10
13.37312088482152
 20
-9.168459393943774
 30
0.0
 10
13.38547863066638
 20
-9.046749966845
 30
0.0
 10
13.39970440785972
 20
-8.924896845027028
 30
0.0
 10
13.41206215370446
 20
-8.808432275176326
 30
0.0
 10
13.41206215370446
 20
-8.808432275176326
 30
0.0
 10
13.47557521955764
 20
-8.30722509486865
 30
0.0
 10
13.47557521955764
 20
-8.30722509486865
 30
0.0
 10
13.47557521955764
 20
-8.30722509486865
 30
0.0
 10
13.76497638387529
 20
-8.30722509486865
 30
0.0
 10
13.76497638387529
 20
-8.30722509486865
 30
0.0
 10
13.76497638387529
 20
-8.30722509486865
 30
0.0
 10
13.57443718631556
 20
-9.454411885002349
 30
0.0
 10
13.57443718631556
 20
-9.454411885002349
 30
0.0
 10
13.57443718631556
 20
-9.454411885002349
 30
0.0
 10
13.18962272849904
 20
-9.454411885002349
 30
0.0
 10
13.18962272849904
 20
-9.454411885002349
 30
0.0
 10
13.18962272849904
 20
-9.454411885002349
 30
0.0
 10
13.10139417095638
 20
-8.9990433200955
 30
0.0
 10
13.10139417095638
 20
-8.9990433200955
 30
0.0
 10
13.08371972050402
 20
-8.910814762552793
 30
0.0
 10
13.06963763802971
 20
-8.815473316413419
 30
0.0
 10
13.05900422881458
 20
-8.730765279489281
 30
0.0
 10
13.05900422881458
 20
-8.730765279489281
 30
0.0
 10
13.05196318757751
 20
-8.730765279489281
 30
0.0
 10
13.05196318757751
 20
-8.730765279489281
 30
0.0
 10
13.03960544173265
 20
-8.815473316413419
 30
0.0
 10
13.02724769588791
 20
-8.910814762552793
 30
0.0
 10
13.00971694015473
 20
-8.9990433200955
 30
0.0
 10
13.00971694015473
 20
-8.9990433200955
 30
0.0
 10
12.92493705587097
 20
-9.454411885002349
 30
0.0
 10
12.92493705587097
 20
-9.454411885002349
 30
0.0
 10
12.92493705587097
 20
-9.454411885002349
 30
0.0
 10
12.54730733401074
 20
-9.454411885002349
 30
0.0
 10
12.54730733401074
 20
-9.454411885002349
 30
0.0
 10
12.54730733401074
 20
-9.454411885002349
 30
0.0
 10
12.34613472723585
 20
-8.30722509486865
 30
0.0
 10
12.34613472723585
 20
-8.30722509486865
 30
0.0
  0
SPLINE
  5
1B5
330
1F
100
AcDbEntity
  8
Layer 1
 62
   179
420
  2301728
370
     9
100
AcDbSpline
210
0.0
220
0.0
230
1.0
 70
    11
 71
     3
 72
    59
 73
    55
 74
     0
 42
0.0000000001
 43
0.0000000001
 12
1.0
 22
0.0
 32
0.0
 13
1.0
 23
0.0
 33
0.0
 40
0.0
 40
0.0
 40
0.0
 40
0.0
 40
1.0
 40
1.0
 40
1.0
 40
2.0
 40
2.0
 40
2.0
 40
3.0
 40
3.0
 40
3.0
 40
4.0
 40
4.0
 40
4.0
 40
5.0
 40
5.0
 40
5.0
 40
6.0
 40
6.0
 40
6.0
 40
7.0
 40
7.0
 40
7.0
 40
8.0
 40
8.0
 40
8.0
 40
9.0
 40
9.0
 40
9.0
 40
10.0
 40
10.0
 40
10.0
 40
11.0
 40
11.0
 40
11.0
 40
12.0
 40
12.0
 40
12.0
 40
13.0
 40
13.0
 40
13.0
 40
14.0
 40
14.0
 40
14.0
 40
15.0
 40
15.0
 40
15.0
 40
16.0
 40
16.0
 40
16.0
 40
17.0
 40
17.0
 40
17.0
 40
18.0
 40
18.0
 40
18.0
 40
18.0
 10
15.11487266327673
 20
-8.848524248001265
 30
0.0
 10
15.11487266327673
 20
-8.848524248001265
 30
0.0
 10
14.82202282570021
 20
-8.2908450430775
 30
0.0
 10
14.82202282570021
 20
-8.2908450430775
 30
0.0
 10
14.82202282570021
 20
-8.2908450430775
 30
0.0
 10
15.16085497339673
 20
-8.2908450430775
 30
0.0
 10
15.16085497339673
 20
-8.2908450430775
 30
0.0
 10
15.16085497339673
 20
-8.2908450430775
 30
0.0
 10
15.23845012172423
 20
-8.477935567378102
 30
0.0
 10
15.23845012172423
 20
-8.477935567378102
 30
0.0
 10
15.26316561341367
 20
-8.530887071375622
 30
0.0
 10
15.28788110510325
 20
-8.594400137228856
 30
0.0
 10
15.31963763802979
 20
-8.668546612297328
 30
0.0
 10
15.31963763802979
 20
-8.668546612297328
 30
0.0
 10
15.32667867926688
 20
-8.668546612297328
 30
0.0
 10
15.32667867926688
 20
-8.668546612297328
 30
0.0
 10
15.35139417095631
 20
-8.594400137228856
 30
0.0
 10
15.37610966264591
 20
-8.530887071375622
 30
0.0
 10
15.39723278635728
 20
-8.477935567378102
 30
0.0
 10
15.39723278635728
 20
-8.477935567378102
 30
0.0
 10
15.46433822018854
 20
-8.2908450430775
 30
0.0
 10
15.46433822018854
 20
-8.2908450430775
 30
0.0
 10
15.46433822018854
 20
-8.2908450430775
 30
0.0
 10
15.7890882854109
 20
-8.2908450430775
 30
0.0
 10
15.7890882854109
 20
-8.2908450430775
 30
0.0
 10
15.7890882854109
 20
-8.2908450430775
 30
0.0
 10
15.49609475311521
 20
-8.8626781778351
 30
0.0
 10
15.49609475311521
 20
-8.8626781778351
 30
0.0
 10
15.49609475311521
 20
-8.8626781778351
 30
0.0
 10
15.80676273586326
 20
-9.438031833211198
 30
0.0
 10
15.80676273586326
 20
-9.438031833211198
 30
0.0
 10
15.80676273586326
 20
-9.438031833211198
 30
0.0
 10
15.46793058816674
 20
-9.438031833211198
 30
0.0
 10
15.46793058816674
 20
-9.438031833211198
 30
0.0
 10
15.46793058816674
 20
-9.438031833211198
 30
0.0
 10
15.37610966264591
 20
-9.233266858458187
 30
0.0
 10
15.37610966264591
 20
-9.233266858458187
 30
0.0
 10
15.34780180297826
 20
-9.1733461605831
 30
0.0
 10
15.32308631128881
 20
-9.113281767988912
 30
0.0
 10
15.29492214634034
 20
-9.042727660898537
 30
0.0
 10
15.29492214634034
 20
-9.042727660898537
 30
0.0
 10
15.28788110510325
 20
-9.042727660898537
 30
0.0
 10
15.28788110510325
 20
-9.042727660898537
 30
0.0
 10
15.26316561341367
 20
-9.113281767988912
 30
0.0
 10
15.23845012172423
 20
-9.1733461605831
 30
0.0
 10
15.21373463003478
 20
-9.233266858458187
 30
0.0
 10
15.21373463003478
 20
-9.233266858458187
 30
0.0
 10
15.12909844047019
 20
-9.438031833211198
 30
0.0
 10
15.12909844047019
 20
-9.438031833211198
 30
0.0
 10
15.12909844047019
 20
-9.438031833211198
 30
0.0
 10
14.80434837524783
 20
-9.438031833211198
 30
0.0
 10
14.80434837524783
 20
-9.438031833211198
 30
0.0
 10
14.80434837524783
 20
-9.438031833211198
 30
0.0
 10
15.11487266327673
 20
-8.848524248001265
 30
0.0
 10
15.11487266327673
 20
-8.848524248001265
 30
0.0
  0
SPLINE
  5
1B6
330
1F
100
AcDbEntity
  8
Layer 1
 62
   179
420
  2301728
370
     9
100
AcDbSpline
210
0.0
220
0.0
230
1.0
 70
    11
 71
     3
 72
    41
 73
    37
 74
     0
 42
0.0000000001
 43
0.0000000001
 12
1.0
 22
0.0
 32
0.0
 13
1.0
 23
0.0
 33
0.0
 40
0.0
 40
0.0
 40
0.0
 40
0.0
 40
1.0
 40
1.0
 40
1.0
 40
2.0
 40
2.0
 40
2.0
 40
3.0
 40
3.0
 40
3.0
 40
4.0
 40
4.0
 40
4.0
 40
5.0
 40
5.0
 40
5.0
 40
6.0
 40
6.0
 40
6.0
 40
7.0
 40
7.0
 40
7.0
 40
8.0
 40
8.0
 40
8.0
 40
9.0
 40
9.0
 40
9.0
 40
10.0
 40
10.0
 40
10.0
 40
11.0
 40
11.0
 40
11.0
 40
12.0
 40
12.0
 40
12.0
 40
12.0
 10
23.98823566644991
 20
-2.303270511082726
 30
0.0
 10
23.98823566644991
 20
-2.303270511082726
 30
0.0
 10
23.64236247751627
 20
-1.551387893261664
 30
0.0
 10
23.64236247751627
 20
-1.551387893261664
 30
0.0
 10
23.64236247751627
 20
-1.551387893261664
 30
0.0
 10
23.96711254273853
 20
-1.551387893261664
 30
0.0
 10
23.96711254273853
 20
-1.551387893261664
 30
0.0
 10
23.96711254273853
 20
-1.551387893261664
 30
0.0
 10
24.05174873230314
 20
-1.7914299215598
 30
0.0
 10
24.05174873230314
 20
-1.7914299215598
 30
0.0
 10
24.08005659197076
 20
-1.877862295113447
 30
0.0
 10
24.10822075691923
 20
-1.957325474789513
 30
0.0
 10
24.13825295321633
 20
-2.047278368961719
 30
0.0
 10
24.13825295321633
 20
-2.047278368961719
 30
0.0
 10
24.14529399445344
 20
-2.047278368961719
 30
0.0
 10
24.14529399445344
 20
-2.047278368961719
 30
0.0
 10
24.17532619075054
 20
-1.957325474789513
 30
0.0
 10
24.20535838704768
 20
-1.877862295113447
 30
0.0
 10
24.23539058334477
 20
-1.7914299215598
 30
0.0
 10
24.23539058334477
 20
-1.7914299215598
 30
0.0
 10
24.32002677290931
 20
-1.551387893261664
 30
0.0
 10
24.32002677290931
 20
-1.551387893261664
 30
0.0
 10
24.32002677290931
 20
-1.551387893261664
 30
0.0
 10
24.6377357968945
 20
-1.551387893261664
 30
0.0
 10
24.6377357968945
 20
-1.551387893261664
 30
0.0
 10
24.6377357968945
 20
-1.551387893261664
 30
0.0
 10
24.29186260796087
 20
-2.303270511082726
 30
0.0
 10
24.29186260796087
 20
-2.303270511082726
 30
0.0
 10
24.29186260796087
 20
-2.303270511082726
 30
0.0
 10
24.29186260796087
 20
-2.698574683395362
 30
0.0
 10
24.29186260796087
 20
-2.698574683395362
 30
0.0
 10
24.29186260796087
 20
-2.698574683395362
 30
0.0
 10
23.98823566644991
 20
-2.698574683395362
 30
0.0
 10
23.98823566644991
 20
-2.698574683395362
 30
0.0
 10
23.98823566644991
 20
-2.698574683395362
 30
0.0
 10
23.98823566644991
 20
-2.303270511082726
 30
0.0
 10
23.98823566644991
 20
-2.303270511082726
 30
0.0
  0
POLYLINE
  5
1B7
330
1F
100
AcDbEntity
  8
Layer 1
 62
   179
420
  2301728
370
     9
100
AcDb2dPolyline
 66
     1
 10
0.0
 20
0.0
 30
0.0
  0
VERTEX
  5
1B8
330
1B7
100
AcDbEntity
  8
Layer 1
 62
   179
420
  2301728
370
     9
100
AcDbVertex
100
AcDb2dVertex
 10
21.46137754593991
 20
-2.498366692940433
 30
0.0
  0
VERTEX
  5
1B9
330
1B7
100
AcDbEntity
  8
Layer 1
 62
   179
420
  2301728
370
     9
100
AcDbVertex
100
AcDb2dVertex
 10
21.93082819332102
 20
-1.788945864620725
 30
0.0
  0
VERTEX
  5
1BA
330
1B7
100
AcDbEntity
  8
Layer 1
 62
   179
420
  2301728
370
     9
100
AcDbVertex
100
AcDb2dVertex
 10
21.50721616134077
 20
-1.788945864620725
 30
0.0
  0
VERTEX
  5
1BB
330
1B7
100
AcDbEntity
  8
Layer 1
 62
   179
420
  2301728
370
     9
100
AcDbVertex
100
AcDb2dVertex
 10
21.50721616134077
 20
-1.534821753848342
 30
0.0
  0
VERTEX
  5
1BC
330
1B7
100
AcDbEntity
  8
Layer 1
 62
   179
420
  2301728
370
     9
100
AcDbVertex
100
AcDb2dVertex
 10
22.30486554720313
 20
-1.534821753848342
 30
0.0
  0
VERTEX
  5
1BD
330
1B7
100
AcDbEntity
  8
Layer 1
 62
   179
420
  2301728
370
     9
100
AcDbVertex
100
AcDb2dVertex
 10
22.30486554720313
 20
-1.718391757530425
 30
0.0
  0
VERTEX
  5
1BE
330
1B7
100
AcDbEntity
  8
Layer 1
 62
   179
420
  2301728
370
     9
100
AcDbVertex
100
AcDb2dVertex
 10
21.8355585945412
 20
-2.427812585850107
 30
0.0
  0
VERTEX
  5
1BF
330
1B7
100
AcDbEntity
  8
Layer 1
 62
   179
420
  2301728
370
     9
100
AcDbVertex
100
AcDb2dVertex
 10
22.30845791518128
 20
-2.427812585850107
 30
0.0
  0
VERTEX
  5
1C0
330
1B7
100
AcDbEntity
  8
Layer 1
 62
   179
420
  2301728
370
     9
100
AcDbVertex
100
AcDb2dVertex
 10
22.30845791518128
 20
-2.68200854398204
 30
0.0
  0
VERTEX
  5
1C1
330
1B7
100
AcDbEntity
  8
Layer 1
 62
   179
420
  2301728
370
     9
100
AcDbVertex
100
AcDb2dVertex
 10
21.46137754593991
 20
-2.68200854398204
 30
0.0
  0
VERTEX
  5
1C2
330
1B7
100
AcDbEntity
  8
Layer 1
 62
   179
420
  2301728
370
     9
100
AcDbVertex
100
AcDb2dVertex
 10
21.46137754593991
 20
-2.498366692940433
 30
0.0
  0
SEQEND
  5
1C3
330
1B7
100
AcDbEntity
  8
Layer 1
 62
   179
420
  2301728
370
     9
  0
SPLINE
  5
1C4
330
1F
100
AcDbEntity
  8
Layer 1
 62
   179
420
  2301728
370
     9
100
AcDbSpline
210
0.0
220
0.0
230
1.0
 70
    11
 71
     3
 72
    38
 73
    34
 74
     0
 42
0.0000000001
 43
0.0000000001
 12
1.0
 22
0.0
 32
0.0
 13
1.0
 23
0.0
 33
0.0
 40
0.0
 40
0.0
 40
0.0
 40
0.0
 40
1.0
 40
1.0
 40
1.0
 40
2.0
 40
2.0
 40
2.0
 40
3.0
 40
3.0
 40
3.0
 40
4.0
 40
4.0
 40
4.0
 40
5.0
 40
5.0
 40
5.0
 40
6.0
 40
6.0
 40
6.0
 40
7.0
 40
7.0
 40
7.0
 40
8.0
 40
8.0
 40
8.0
 40
9.0
 40
9.0
 40
9.0
 40
10.0
 40
10.0
 40
10.0
 40
11.0
 40
11.0
 40
11.0
 40
11.0
 10
19.26773611995279
 20
-2.440840992636557
 30
0.0
 10
19.26773611995279
 20
-2.440840992636557
 30
0.0
 10
19.50770630089129
 20
-2.440840992636557
 30
0.0
 10
19.50770630089129
 20
-2.440840992636557
 30
0.0
 10
19.50770630089129
 20
-2.440840992636557
 30
0.0
 10
19.50770630089129
 20
-1.862038664001413
 30
0.0
 10
19.50770630089129
 20
-1.862038664001413
 30
0.0
 10
19.50770630089129
 20
-1.862038664001413
 30
0.0
 10
19.29590028490126
 20
-1.862038664001413
 30
0.0
 10
19.29590028490126
 20
-1.862038664001413
 30
0.0
 10
19.29590028490126
 20
-1.862038664001413
 30
0.0
 10
19.29590028490126
 20
-1.674948139700809
 30
0.0
 10
19.29590028490126
 20
-1.674948139700809
 30
0.0
 10
19.42292641660765
 20
-1.650232648011335
 30
0.0
 10
19.50411393291324
 20
-1.618476115084718
 30
0.0
 10
19.58889381719698
 20
-1.565596458446723
 30
0.0
 10
19.58889381719698
 20
-1.565596458446723
 30
0.0
 10
19.81118954768322
 20
-1.565596458446723
 30
0.0
 10
19.81118954768322
 20
-1.565596458446723
 30
0.0
 10
19.81118954768322
 20
-1.565596458446723
 30
0.0
 10
19.81118954768322
 20
-2.440840992636557
 30
0.0
 10
19.81118954768322
 20
-2.440840992636557
 30
0.0
 10
19.81118954768322
 20
-2.440840992636557
 30
0.0
 10
20.01236215445808
 20
-2.440840992636557
 30
0.0
 10
20.01236215445808
 20
-2.440840992636557
 30
0.0
 10
20.01236215445808
 20
-2.440840992636557
 30
0.0
 10
20.01236215445808
 20
-2.684403541553277
 30
0.0
 10
20.01236215445808
 20
-2.684403541553277
 30
0.0
 10
20.01236215445808
 20
-2.684403541553277
 30
0.0
 10
19.26773611995279
 20
-2.684403541553277
 30
0.0
 10
19.26773611995279
 20
-2.684403541553277
 30
0.0
 10
19.26773611995279
 20
-2.684403541553277
 30
0.0
 10
19.26773611995279
 20
-2.440840992636557
 30
0.0
 10
19.26773611995279
 20
-2.440840992636557
 30
0.0
  0
SPLINE
  5
1C5
330
1F
100
AcDbEntity
  8
Layer 1
 62
   179
420
  2301728
370
     9
100
AcDbSpline
210
0.0
220
0.0
230
1.0
 70
    11
 71
     3
 72
    41
 73
    37
 74
     0
 42
0.0000000001
 43
0.0000000001
 12
1.0
 22
0.0
 32
0.0
 13
1.0
 23
0.0
 33
0.0
 40
0.0
 40
0.0
 40
0.0
 40
0.0
 40
1.0
 40
1.0
 40
1.0
 40
2.0
 40
2.0
 40
2.0
 40
3.0
 40
3.0
 40
3.0
 40
4.0
 40
4.0
 40
4.0
 40
5.0
 40
5.0
 40
5.0
 40
6.0
 40
6.0
 40
6.0
 40
7.0
 40
7.0
 40
7.0
 40
8.0
 40
8.0
 40
8.0
 40
9.0
 40
9.0
 40
9.0
 40
10.0
 40
10.0
 40
10.0
 40
11.0
 40
11.0
 40
11.0
 40
12.0
 40
12.0
 40
12.0
 40
12.0
 10
19.20235502275088
 20
-4.772005121547964
 30
0.0
 10
19.46704069537908
 20
-4.528586267350394
 30
0.0
 10
19.67180567013199
 20
-4.341495743049752
 30
0.0
 10
19.67180567013199
 20
-4.189754119653836
 30
0.0
 10
19.67180567013199
 20
-4.089167816266417
 30
0.0
 10
19.61533364551588
 20
-4.041461169516942
 30
0.0
 10
19.53414612921033
 20
-4.041461169516942
 30
0.0
 10
19.45999965414186
 20
-4.041461169516942
 30
0.0
 10
19.40352762952574
 20
-4.094340826154911
 30
0.0
 10
19.35064797288783
 20
-4.147364177512031
 30
0.0
 10
19.35064797288783
 20
-4.147364177512031
 30
0.0
 10
19.18827294027672
 20
-3.984989144900851
 30
0.0
 10
19.18827294027672
 20
-3.984989144900851
 30
0.0
 10
19.30466566276782
 20
-3.861411686453405
 30
0.0
 10
19.41056867076296
 20
-3.80493966183739
 30
0.0
 10
19.57653607135227
 20
-3.80493966183739
 30
0.0
 10
19.80242416981658
 20
-3.80493966183739
 30
0.0
 10
19.96120683444964
 20
-3.949640243996138
 30
0.0
 10
19.96120683444964
 20
-4.172079669201505
 30
0.0
 10
19.96120683444964
 20
-4.351985457545892
 30
0.0
 10
19.79179076060129
 20
-4.549709391061734
 30
0.0
 10
19.64004913720545
 20
-4.705043382435772
 30
0.0
 10
19.69652116182144
 20
-4.698002341198629
 30
0.0
 10
19.77770867812713
 20
-4.69081760524245
 30
0.0
 10
19.82713966150603
 20
-4.69081760524245
 30
0.0
 10
19.82713966150603
 20
-4.69081760524245
 30
0.0
 10
20.01423018580671
 20
-4.69081760524245
 30
0.0
 10
20.01423018580671
 20
-4.69081760524245
 30
0.0
 10
20.01423018580671
 20
-4.69081760524245
 30
0.0
 10
20.01423018580671
 20
-4.945013563374371
 30
0.0
 10
20.01423018580671
 20
-4.945013563374371
 30
0.0
 10
20.01423018580671
 20
-4.945013563374371
 30
0.0
 10
19.20235502275088
 20
-4.945013563374371
 30
0.0
 10
19.20235502275088
 20
-4.945013563374371
 30
0.0
 10
19.20235502275088
 20
-4.945013563374371
 30
0.0
 10
19.20235502275088
 20
-4.772005121547964
 30
0.0
 10
19.20235502275088
 20
-4.772005121547964
 30
0.0
  0
SPLINE
  5
1C6
330
1F
100
AcDbEntity
  8
Layer 1
 62
   179
420
  2301728
370
     9
100
AcDbSpline
210
0.0
220
0.0
230
1.0
 70
    11
 71
     3
 72
    53
 73
    49
 74
     0
 42
0.0000000001
 43
0.0000000001
 12
1.0
 22
0.0
 32
0.0
 13
1.0
 23
0.0
 33
0.0
 40
0.0
 40
0.0
 40
0.0
 40
0.0
 40
1.0
 40
1.0
 40
1.0
 40
2.0
 40
2.0
 40
2.0
 40
3.0
 40
3.0
 40
3.0
 40
4.0
 40
4.0
 40
4.0
 40
5.0
 40
5.0
 40
5.0
 40
6.0
 40
6.0
 40
6.0
 40
7.0
 40
7.0
 40
7.0
 40
8.0
 40
8.0
 40
8.0
 40
9.0
 40
9.0
 40
9.0
 40
10.0
 40
10.0
 40
10.0
 40
11.0
 40
11.0
 40
11.0
 40
12.0
 40
12.0
 40
12.0
 40
13.0
 40
13.0
 40
13.0
 40
14.0
 40
14.0
 40
14.0
 40
15.0
 40
15.0
 40
15.0
 40
16.0
 40
16.0
 40
16.0
 40
16.0
 10
21.61128138210307
 20
-4.595700310584081
 30
0.0
 10
21.68011115256392
 20
-4.65921337643729
 30
0.0
 10
21.76115497415033
 20
-4.701603318579146
 30
0.0
 10
21.84061815382643
 20
-4.701603318579146
 30
0.0
 10
21.93948012058437
 20
-4.701603318579146
 30
0.0
 10
22.00299318643755
 20
-4.666254417674407
 30
0.0
 10
22.00299318643755
 20
-4.595700310584081
 30
0.0
 10
22.00299318643755
 20
-4.510920426300395
 30
0.0
 10
21.95887890766625
 20
-4.461489442921422
 30
0.0
 10
21.72422543133525
 20
-4.461489442921422
 30
0.0
 10
21.72422543133525
 20
-4.461489442921422
 30
0.0
 10
21.72422543133525
 20
-4.249827121650393
 30
0.0
 10
21.72422543133525
 20
-4.249827121650393
 30
0.0
 10
21.91117226091675
 20
-4.249827121650393
 30
0.0
 10
21.96764428553284
 20
-4.200396138271445
 30
0.0
 10
21.96764428553284
 20
-4.122657295224877
 30
0.0
 10
21.96764428553284
 20
-4.055695556112672
 30
0.0
 10
21.92712237473961
 20
-4.020346655207933
 30
0.0
 10
21.85125156304166
 20
-4.020346655207933
 30
0.0
 10
21.77710508797324
 20
-4.020346655207933
 30
0.0
 10
21.72422543133525
 20
-4.05210318813455
 30
0.0
 10
21.65352762952582
 20
-4.112167580728788
 30
0.0
 10
21.65352762952582
 20
-4.112167580728788
 30
0.0
 10
21.50178600612988
 20
-3.92852572968713
 30
0.0
 10
21.50178600612988
 20
-3.92852572968713
 30
0.0
 10
21.61128138210307
 20
-3.836848498885451
 30
0.0
 10
21.72767410459427
 20
-3.783825147528382
 30
0.0
 10
21.8653336455159
 20
-3.783825147528382
 30
0.0
 10
22.11234486769164
 20
-3.783825147528382
 30
0.0
 10
22.27127122704375
 20
-3.896769196760563
 30
0.0
 10
22.27127122704375
 20
-4.099809834884001
 30
0.0
 10
22.27127122704375
 20
-4.207437179508562
 30
0.0
 10
22.21120683444956
 20
-4.288624695814178
 30
0.0
 10
22.09122174398026
 20
-4.341504352452097
 30
0.0
 10
22.09122174398026
 20
-4.341504352452097
 30
0.0
 10
22.09122174398026
 20
-4.348545393689215
 30
0.0
 10
22.09122174398026
 20
-4.348545393689215
 30
0.0
 10
22.21824787568668
 20
-4.387486662572075
 30
0.0
 10
22.30647643322939
 20
-4.475715220114807
 30
0.0
 10
22.30647643322939
 20
-4.616823434295434
 30
0.0
 10
22.30647643322939
 20
-4.828629450285537
 30
0.0
 10
22.1053038264545
 20
-4.945022172776715
 30
0.0
 10
21.87237468675299
 20
-4.945022172776715
 30
0.0
 10
21.69060086706001
 20
-4.945022172776715
 30
0.0
 10
21.55825803074597
 20
-4.885101474901628
 30
0.0
 10
21.47362184118141
 20
-4.786239508143681
 30
0.0
 10
21.47362184118141
 20
-4.786239508143681
 30
0.0
 10
21.61128138210307
 20
-4.595700310584081
 30
0.0
 10
21.61128138210307
 20
-4.595700310584081
 30
0.0
  0
POLYLINE
  5
1C7
330
1F
100
AcDbEntity
  8
Layer 1
 62
   179
420
  2301728
370
     9
100
AcDb2dPolyline
 66
     1
 10
0.0
 20
0.0
 30
0.0
  0
VERTEX
  5
1C8
330
1C7
100
AcDbEntity
  8
Layer 1
 62
   179
420
  2301728
370
     9
100
AcDbVertex
100
AcDb2dVertex
 10
24.57433618164456
 20
-4.683799951399451
 30
0.0
  0
VERTEX
  5
1C9
330
1C7
100
AcDbEntity
  8
Layer 1
 62
   179
420
  2301728
370
     9
100
AcDbVertex
100
AcDb2dVertex
 10
24.45435109117529
 20
-4.683799951399451
 30
0.0
  0
VERTEX
  5
1CA
330
1C7
100
AcDbEntity
  8
Layer 1
 62
   179
420
  2301728
370
     9
100
AcDbVertex
100
AcDb2dVertex
 10
24.45435109117529
 20
-4.934403541553289
 30
0.0
  0
VERTEX
  5
1CB
330
1C7
100
AcDbEntity
  8
Layer 1
 62
   179
420
  2301728
370
     9
100
AcDbVertex
100
AcDb2dVertex
 10
24.17199096809484
 20
-4.934403541553289
 30
0.0
  0
VERTEX
  5
1CC
330
1C7
100
AcDbEntity
  8
Layer 1
 62
   179
420
  2301728
370
     9
100
AcDbVertex
100
AcDb2dVertex
 10
24.17199096809484
 20
-4.683799951399451
 30
0.0
  0
VERTEX
  5
1CD
330
1C7
100
AcDbEntity
  8
Layer 1
 62
   179
420
  2301728
370
     9
100
AcDbVertex
100
AcDb2dVertex
 10
23.69549927947663
 20
-4.683799951399451
 30
0.0
  0
VERTEX
  5
1CE
330
1C7
100
AcDbEntity
  8
Layer 1
 62
   179
420
  2301728
370
     9
100
AcDbVertex
100
AcDb2dVertex
 10
23.69549927947663
 20
-4.471993935409349
 30
0.0
  0
VERTEX
  5
1CF
330
1C7
100
AcDbEntity
  8
Layer 1
 62
   179
420
  2301728
370
     9
100
AcDbVertex
100
AcDb2dVertex
 10
24.07657767459589
 20
-3.815596458446735
 30
0.0
  0
VERTEX
  5
1D0
330
1C7
100
AcDbEntity
  8
Layer 1
 62
   179
420
  2301728
370
     9
100
AcDbVertex
100
AcDb2dVertex
 10
24.45435109117529
 20
-3.815596458446735
 30
0.0
  0
VERTEX
  5
1D1
330
1C7
100
AcDbEntity
  8
Layer 1
 62
   179
420
  2301728
370
     9
100
AcDbVertex
100
AcDb2dVertex
 10
24.45435109117529
 20
-4.454319484956967
 30
0.0
  0
VERTEX
  5
1D2
330
1C7
100
AcDbEntity
  8
Layer 1
 62
   179
420
  2301728
370
     9
100
AcDbVertex
100
AcDb2dVertex
 10
24.57433618164456
 20
-4.454319484956967
 30
0.0
  0
VERTEX
  5
1D3
330
1C7
100
AcDbEntity
  8
Layer 1
 62
   179
420
  2301728
370
     9
100
AcDbVertex
100
AcDb2dVertex
 10
24.57433618164456
 20
-4.683799951399451
 30
0.0
  0
SEQEND
  5
1D4
330
1C7
100
AcDbEntity
  8
Layer 1
 62
   179
420
  2301728
370
     9
  0
SPLINE
  5
1D5
330
1F
100
AcDbEntity
  8
Layer 1
 62
   179
420
  2301728
370
     9
100
AcDbSpline
210
0.0
220
0.0
230
1.0
 70
    11
 71
     3
 72
    23
 73
    19
 74
     0
 42
0.0000000001
 43
0.0000000001
 12
1.0
 22
0.0
 32
0.0
 13
1.0
 23
0.0
 33
0.0
 40
0.0
 40
0.0
 40
0.0
 40
0.0
 40
1.0
 40
1.0
 40
1.0
 40
2.0
 40
2.0
 40
2.0
 40
3.0
 40
3.0
 40
3.0
 40
4.0
 40
4.0
 40
4.0
 40
5.0
 40
5.0
 40
5.0
 40
6.0
 40
6.0
 40
6.0
 40
6.0
 10
24.17199096809484
 20
-4.454319484956967
 30
0.0
 10
24.17199096809484
 20
-4.454319484956967
 30
0.0
 10
24.17199096809484
 20
-4.32729335325055
 30
0.0
 10
24.17199096809484
 20
-4.32729335325055
 30
0.0
 10
24.17199096809484
 20
-4.251422541552604
 30
0.0
 10
24.17903200933193
 20
-4.138478492320448
 30
0.0
 10
24.18248068259095
 20
-4.062607680622477
 30
0.0
 10
24.18248068259095
 20
-4.062607680622477
 30
0.0
 10
24.17543964135383
 20
-4.062607680622477
 30
0.0
 10
24.17543964135383
 20
-4.062607680622477
 30
0.0
 10
24.14727547640536
 20
-4.129713114453858
 30
0.0
 10
24.11551894347874
 20
-4.196674853565987
 30
0.0
 10
24.08361871583303
 20
-4.263780287397367
 30
0.0
 10
24.08361871583303
 20
-4.263780287397367
 30
0.0
 10
23.98130807581608
 20
-4.454319484956967
 30
0.0
 10
23.98130807581608
 20
-4.454319484956967
 30
0.0
 10
23.98130807581608
 20
-4.454319484956967
 30
0.0
 10
24.17199096809484
 20
-4.454319484956967
 30
0.0
 10
24.17199096809484
 20
-4.454319484956967
 30
0.0
  0
SPLINE
  5
1D6
330
1F
100
AcDbEntity
  8
Layer 1
 62
   179
420
  2301728
370
     9
100
AcDbSpline
210
0.0
220
0.0
230
1.0
 70
    11
 71
     3
 72
    50
 73
    46
 74
     0
 42
0.0000000001
 43
0.0000000001
 12
1.0
 22
0.0
 32
0.0
 13
1.0
 23
0.0
 33
0.0
 40
0.0
 40
0.0
 40
0.0
 40
0.0
 40
1.0
 40
1.0
 40
1.0
 40
2.0
 40
2.0
 40
2.0
 40
3.0
 40
3.0
 40
3.0
 40
4.0
 40
4.0
 40
4.0
 40
5.0
 40
5.0
 40
5.0
 40
6.0
 40
6.0
 40
6.0
 40
7.0
 40
7.0
 40
7.0
 40
8.0
 40
8.0
 40
8.0
 40
9.0
 40
9.0
 40
9.0
 40
10.0
 40
10.0
 40
10.0
 40
11.0
 40
11.0
 40
11.0
 40
12.0
 40
12.0
 40
12.0
 40
13.0
 40
13.0
 40
13.0
 40
14.0
 40
14.0
 40
14.0
 40
15.0
 40
15.0
 40
15.0
 40
15.0
 10
19.35955704547357
 20
-6.84922383714469
 30
0.0
 10
19.42651878458575
 20
-6.909144535019777
 30
0.0
 10
19.50425762763237
 20
-6.955126845139754
 30
0.0
 10
19.58544514393793
 20
-6.955126845139754
 30
0.0
 10
19.69120445721377
 20
-6.955126845139754
 30
0.0
 10
19.75126884980806
 20
-6.909144535019777
 30
0.0
 10
19.75126884980806
 20
-6.810282568261855
 30
0.0
 10
19.75126884980806
 20
-6.71501296948203
 30
0.0
 10
19.68775578395487
 20
-6.665581986103057
 30
0.0
 10
19.59952722641224
 20
-6.665581986103057
 30
0.0
 10
19.53946283381793
 20
-6.665581986103057
 30
0.0
 10
19.51129866886946
 20
-6.676215395318295
 30
0.0
 10
19.44419323503813
 20
-6.718605337460126
 30
0.0
 10
19.44419323503813
 20
-6.718605337460126
 30
0.0
 10
19.31357473535357
 20
-6.63382545317644
 30
0.0
 10
19.31357473535357
 20
-6.63382545317644
 30
0.0
 10
19.31357473535357
 20
-6.63382545317644
 30
0.0
 10
19.34188259502119
 20
-6.058615492519417
 30
0.0
 10
19.34188259502119
 20
-6.058615492519417
 30
0.0
 10
19.34188259502119
 20
-6.058615492519417
 30
0.0
 10
20.00546480794002
 20
-6.058615492519417
 30
0.0
 10
20.00546480794002
 20
-6.058615492519417
 30
0.0
 10
20.00546480794002
 20
-6.058615492519417
 30
0.0
 10
20.00546480794002
 20
-6.312667755932276
 30
0.0
 10
20.00546480794002
 20
-6.312667755932276
 30
0.0
 10
20.00546480794002
 20
-6.312667755932276
 30
0.0
 10
19.60297589967111
 20
-6.312667755932276
 30
0.0
 10
19.60297589967111
 20
-6.312667755932276
 30
0.0
 10
19.60297589967111
 20
-6.312667755932276
 30
0.0
 10
19.58889381719695
 20
-6.475042788543406
 30
0.0
 10
19.58889381719695
 20
-6.475042788543406
 30
0.0
 10
19.62769139136071
 20
-6.460960706069171
 30
0.0
 10
19.65772358765778
 20
-6.457368338091075
 30
0.0
 10
19.69479682519196
 20
-6.457368338091075
 30
0.0
 10
19.88892839072974
 20
-6.457368338091075
 30
0.0
 10
20.05475209659986
 20
-6.56686371406421
 30
0.0
 10
20.05475209659986
 20
-6.803241527024688
 30
0.0
 10
20.05475209659986
 20
-7.05384511717855
 30
0.0
 10
19.85889619443265
 20
-7.198545699337323
 30
0.0
 10
19.63128375933876
 20
-7.198545699337323
 30
0.0
 10
19.44778560301627
 20
-7.198545699337323
 30
0.0
 10
19.31716710333176
 20
-7.131583960225093
 30
0.0
 10
19.22534617781088
 20
-7.03976303470429
 30
0.0
 10
19.22534617781088
 20
-7.03976303470429
 30
0.0
 10
19.35955704547357
 20
-6.84922383714469
 30
0.0
 10
19.35955704547357
 20
-6.84922383714469
 30
0.0
  0
SPLINE
  5
1D7
330
1F
100
AcDbEntity
  8
Layer 1
 62
   179
420
  2301728
370
     9
100
AcDbSpline
210
0.0
220
0.0
230
1.0
 70
    11
 71
     3
 72
    32
 73
    28
 74
     0
 42
0.0000000001
 43
0.0000000001
 12
1.0
 22
0.0
 32
0.0
 13
1.0
 23
0.0
 33
0.0
 40
0.0
 40
0.0
 40
0.0
 40
0.0
 40
1.0
 40
1.0
 40
1.0
 40
2.0
 40
2.0
 40
2.0
 40
3.0
 40
3.0
 40
3.0
 40
4.0
 40
4.0
 40
4.0
 40
5.0
 40
5.0
 40
5.0
 40
6.0
 40
6.0
 40
6.0
 40
7.0
 40
7.0
 40
7.0
 40
8.0
 40
8.0
 40
8.0
 40
9.0
 40
9.0
 40
9.0
 40
9.0
 10
22.11248856241076
 20
-6.379716120395742
 30
0.0
 10
22.07713966150605
 20
-6.340918546232059
 30
0.0
 10
22.00658555441575
 20
-6.302120972068299
 30
0.0
 10
21.94307248856257
 20
-6.302120972068299
 30
0.0
 10
21.83357711258938
 20
-6.302120972068299
 30
0.0
 10
21.74721658639522
 20
-6.377991783766245
 30
0.0
 10
21.73658317718008
 20
-6.603879882230633
 30
0.0
 10
21.7913308651666
 20
-6.531601438510783
 30
0.0
 10
21.88660046394645
 20
-6.49266016962795
 30
0.0
 10
21.94652116182147
 20
-6.49266016962795
 30
0.0
 10
22.13720405410021
 20
-6.49266016962795
 30
0.0
 10
22.28535330951814
 20
-6.598563177622989
 30
0.0
 10
22.28535330951814
 20
-6.838677053280712
 30
0.0
 10
22.28535330951814
 20
-7.078647234219311
 30
0.0
 10
22.10889619443272
 20
-7.219755448399964
 30
0.0
 10
21.89709017844257
 20
-7.219755448399964
 30
0.0
 10
21.68183548919339
 20
-7.219755448399964
 30
0.0
 10
21.45953975870715
 20
-7.06456515174505
 30
0.0
 10
21.45953975870715
 20
-6.658627570217251
 30
0.0
 10
21.45953975870715
 20
-6.252689988689326
 30
0.0
 10
21.68183548919339
 20
-6.05855842315163
 30
0.0
 10
21.92180567013202
 20
-6.05855842315163
 30
0.0
 10
22.08073202948422
 20
-6.05855842315163
 30
0.0
 10
22.19712475197535
 20
-6.125663856982934
 30
0.0
 10
22.27127122704383
 20
-6.199810332051356
 30
0.0
 10
22.27127122704383
 20
-6.199810332051356
 30
0.0
 10
22.11248856241076
 20
-6.379716120395742
 30
0.0
 10
22.11248856241076
 20
-6.379716120395742
 30
0.0
  0
SPLINE
  5
1D8
330
1F
100
AcDbEntity
  8
Layer 1
 62
   179
420
  2301728
370
     9
100
AcDbSpline
210
0.0
220
0.0
230
1.0
 70
    11
 71
     3
 72
    17
 73
    13
 74
     0
 42
0.0000000001
 43
0.0000000001
 12
1.0
 22
0.0
 32
0.0
 13
1.0
 23
0.0
 33
0.0
 40
0.0
 40
0.0
 40
0.0
 40
0.0
 40
1.0
 40
1.0
 40
1.0
 40
2.0
 40
2.0
 40
2.0
 40
3.0
 40
3.0
 40
3.0
 40
4.0
 40
4.0
 40
4.0
 40
4.0
 10
22.0100342276748
 20
-6.838677053280712
 30
0.0
 10
22.0100342276748
 20
-6.730906013937025
 30
0.0
 10
21.95011352979966
 20
-6.704466185618053
 30
0.0
 10
21.88660046394645
 20
-6.704466185618053
 30
0.0
 10
21.83544514393798
 20
-6.704466185618053
 30
0.0
 10
21.78414612921036
 20
-6.730906013937025
 30
0.0
 10
21.74362421841715
 20
-6.799735784397853
 30
0.0
 10
21.7683397101066
 20
-6.956794112401363
 30
0.0
 10
21.83544514393798
 20
-6.993867349935625
 30
0.0
 10
21.89004913720547
 20
-6.993867349935625
 30
0.0
 10
21.95356220305868
 20
-6.993867349935625
 30
0.0
 10
22.0100342276748
 20
-6.956794112401363
 30
0.0
 10
22.0100342276748
 20
-6.838677053280712
 30
0.0
  0
SPLINE
  5
1D9
330
1F
100
AcDbEntity
  8
Layer 1
 62
   179
420
  2301728
370
     9
100
AcDbSpline
210
0.0
220
0.0
230
1.0
 70
    11
 71
     3
 72
    26
 73
    22
 74
     0
 42
0.0000000001
 43
0.0000000001
 12
1.0
 22
0.0
 32
0.0
 13
1.0
 23
0.0
 33
0.0
 40
0.0
 40
0.0
 40
0.0
 40
0.0
 40
1.0
 40
1.0
 40
1.0
 40
2.0
 40
2.0
 40
2.0
 40
3.0
 40
3.0
 40
3.0
 40
4.0
 40
4.0
 40
4.0
 40
5.0
 40
5.0
 40
5.0
 40
6.0
 40
6.0
 40
6.0
 40
7.0
 40
7.0
 40
7.0
 40
7.0
 10
24.24859393569189
 20
-6.333820893230167
 30
0.0
 10
24.24859393569189
 20
-6.333820893230167
 30
0.0
 10
23.76850987909559
 20
-6.333820893230167
 30
0.0
 10
23.76850987909559
 20
-6.333820893230167
 30
0.0
 10
23.76850987909559
 20
-6.333820893230167
 30
0.0
 10
23.76850987909559
 20
-6.079768629817307
 30
0.0
 10
23.76850987909559
 20
-6.079768629817307
 30
0.0
 10
23.76850987909559
 20
-6.079768629817307
 30
0.0
 10
24.56975163293605
 20
-6.079768629817307
 30
0.0
 10
24.56975163293605
 20
-6.079768629817307
 30
0.0
 10
24.56975163293605
 20
-6.079768629817307
 30
0.0
 10
24.56975163293605
 20
-6.266715459398837
 30
0.0
 10
24.56975163293605
 20
-6.266715459398837
 30
0.0
 10
24.31210700154507
 20
-6.568618064280296
 30
0.0
 10
24.2837991418775
 20
-6.762749629817992
 30
0.0
 10
24.26267601816613
 20
-7.198575712923861
 30
0.0
 10
24.26267601816613
 20
-7.198575712923861
 30
0.0
 10
23.95919277137434
 20
-7.198575712923861
 30
0.0
 10
23.95919277137434
 20
-7.198575712923861
 30
0.0
 10
23.98031589508567
 20
-6.84566148275308
 30
0.0
 10
24.04038028767991
 20
-6.621497720918215
 30
0.0
 10
24.24859393569189
 20
-6.333820893230167
 30
0.0
  0
SPLINE
  5
1DA
330
1F
100
AcDbEntity
  8
Layer 1
 62
   179
420
  2301728
370
     9
100
AcDbSpline
210
0.0
220
0.0
230
1.0
 70
    11
 71
     3
 72
    35
 73
    31
 74
     0
 42
0.0000000001
 43
0.0000000001
 12
1.0
 22
0.0
 32
0.0
 13
1.0
 23
0.0
 33
0.0
 40
0.0
 40
0.0
 40
0.0
 40
0.0
 40
1.0
 40
1.0
 40
1.0
 40
2.0
 40
2.0
 40
2.0
 40
3.0
 40
3.0
 40
3.0
 40
4.0
 40
4.0
 40
4.0
 40
5.0
 40
5.0
 40
5.0
 40
6.0
 40
6.0
 40
6.0
 40
7.0
 40
7.0
 40
7.0
 40
8.0
 40
8.0
 40
8.0
 40
9.0
 40
9.0
 40
9.0
 40
10.0
 40
10.0
 40
10.0
 40
10.0
 10
19.41940589598915
 20
-8.935527112641061
 30
0.0
 10
19.41940589598915
 20
-8.935527112641061
 30
0.0
 10
19.41940589598915
 20
-8.928486071403944
 30
0.0
 10
19.41940589598915
 20
-8.928486071403944
 30
0.0
 10
19.33117733844645
 20
-8.86138063757264
 30
0.0
 10
19.27111294585226
 20
-8.78019312126705
 30
0.0
 10
19.27111294585226
 20
-8.663800398775846
 30
0.0
 10
19.27111294585226
 20
-8.466076465260004
 30
0.0
 10
19.42644693722625
 20
-8.34609137479073
 30
0.0
 10
19.64529399445347
 20
-8.34609137479073
 30
0.0
 10
19.8535076424655
 20
-8.34609137479073
 30
0.0
 10
19.99475955136525
 20
-8.466076465260004
 30
0.0
 10
19.99475955136525
 20
-8.656759357538753
 30
0.0
 10
19.99475955136525
 20
-8.759069997555697
 30
0.0
 10
19.93124648551207
 20
-8.840257513861236
 30
0.0
 10
19.851783305836
 20
-8.891412833869733
 30
0.0
 10
19.851783305836
 20
-8.891412833869733
 30
0.0
 10
19.851783305836
 20
-8.898453875106851
 30
0.0
 10
19.851783305836
 20
-8.898453875106851
 30
0.0
 10
19.96113498709009
 20
-8.956793931071564
 30
0.0
 10
20.04419053474425
 20
-9.045022488614247
 30
0.0
 10
20.04419053474425
 20
-9.193171744032043
 30
0.0
 10
20.04419053474425
 20
-9.373221227095554
 30
0.0
 10
19.87994747078447
 20
-9.507288400039062
 30
0.0
 10
19.63466058523828
 20
-9.507288400039062
 30
0.0
 10
19.40704815014442
 20
-9.507288400039062
 30
0.0
 10
19.2359077396666
 20
-9.383854636310767
 30
0.0
 10
19.2359077396666
 20
-9.200212785269134
 30
0.0
 10
19.2359077396666
 20
-9.06973798030372
 30
0.0
 10
19.31350288799412
 20
-8.991999137257153
 30
0.0
 10
19.41940589598915
 20
-8.935527112641061
 30
0.0
  0
SPLINE
  5
1DB
330
1F
100
AcDbEntity
  8
Layer 1
 62
   179
420
  2301728
370
     9
100
AcDbSpline
210
0.0
220
0.0
230
1.0
 70
    11
 71
     3
 72
    17
 73
    13
 74
     0
 42
0.0000000001
 43
0.0000000001
 12
1.0
 22
0.0
 32
0.0
 13
1.0
 23
0.0
 33
0.0
 40
0.0
 40
0.0
 40
0.0
 40
0.0
 40
1.0
 40
1.0
 40
1.0
 40
2.0
 40
2.0
 40
2.0
 40
3.0
 40
3.0
 40
3.0
 40
4.0
 40
4.0
 40
4.0
 40
4.0
 10
19.64184532119452
 20
-9.299074752027082
 30
0.0
 10
19.70880706030665
 20
-9.299074752027082
 30
0.0
 10
19.76355474829329
 20
-9.267318219100463
 30
0.0
 10
19.76355474829329
 20
-9.182682029535902
 30
0.0
 10
19.76355474829329
 20
-9.101494513230337
 30
0.0
 10
19.68595959996583
 20
-9.06973798030372
 30
0.0
 10
19.55347306893266
 20
-9.013265955687631
 30
0.0
 10
19.51999219937655
 20
-9.05206352985139
 30
0.0
 10
19.49527670768708
 20
-9.108535554467455
 30
0.0
 10
19.49527670768708
 20
-9.165007579083547
 30
0.0
 10
19.49527670768708
 20
-9.253236136626203
 30
0.0
 10
19.56410647814795
 20
-9.299074752027082
 30
0.0
 10
19.64184532119452
 20
-9.299074752027082
 30
0.0
  0
SPLINE
  5
1DC
330
1F
100
AcDbEntity
  8
Layer 1
 62
   179
420
  2301728
370
     9
100
AcDbSpline
210
0.0
220
0.0
230
1.0
 70
    11
 71
     3
 72
    17
 73
    13
 74
     0
 42
0.0000000001
 43
0.0000000001
 12
1.0
 22
0.0
 32
0.0
 13
1.0
 23
0.0
 33
0.0
 40
0.0
 40
0.0
 40
0.0
 40
0.0
 40
1.0
 40
1.0
 40
1.0
 40
2.0
 40
2.0
 40
2.0
 40
3.0
 40
3.0
 40
3.0
 40
4.0
 40
4.0
 40
4.0
 40
4.0
 10
19.75119700244851
 20
-8.677882481250107
 30
0.0
 10
19.75119700244851
 20
-8.600287332922663
 30
0.0
 10
19.70880706030665
 20
-8.554305022802685
 30
0.0
 10
19.63825295321638
 20
-8.554305022802685
 30
0.0
 10
19.58350526522978
 20
-8.554305022802685
 30
0.0
 10
19.53594231319943
 20
-8.586205250448428
 30
0.0
 10
19.53594231319943
 20
-8.663800398775846
 30
0.0
 10
19.53594231319943
 20
-8.737946873844294
 30
0.0
 10
19.59586301107452
 20
-8.776744448008053
 30
0.0
 10
19.70176601906956
 20
-8.819134390149884
 30
0.0
 10
19.73352255199618
 20
-8.773152080029933
 30
0.0
 10
19.75119700244851
 20
-8.727313464629054
 30
0.0
 10
19.75119700244851
 20
-8.677882481250107
 30
0.0
  0
SPLINE
  5
1DD
330
1F
100
AcDbEntity
  8
Layer 1
 62
   179
420
  2301728
370
     9
100
AcDbSpline
210
0.0
220
0.0
230
1.0
 70
    11
 71
     3
 72
    32
 73
    28
 74
     0
 42
0.0000000001
 43
0.0000000001
 12
1.0
 22
0.0
 32
0.0
 13
1.0
 23
0.0
 33
0.0
 40
0.0
 40
0.0
 40
0.0
 40
0.0
 40
1.0
 40
1.0
 40
1.0
 40
2.0
 40
2.0
 40
2.0
 40
3.0
 40
3.0
 40
3.0
 40
4.0
 40
4.0
 40
4.0
 40
5.0
 40
5.0
 40
5.0
 40
6.0
 40
6.0
 40
6.0
 40
7.0
 40
7.0
 40
7.0
 40
8.0
 40
8.0
 40
8.0
 40
9.0
 40
9.0
 40
9.0
 40
9.0
 10
21.65007895626685
 20
-9.134440815380003
 30
0.0
 10
21.68528416245247
 20
-9.173238389543762
 30
0.0
 10
21.75583826954279
 20
-9.212179658426596
 30
0.0
 10
21.81949503011502
 20
-9.212179658426596
 30
0.0
 10
21.93057104799863
 20
-9.212179658426596
 30
0.0
 10
22.01535093228237
 20
-9.136165152009475
 30
0.0
 10
22.02584064677848
 20
-8.910277053545137
 30
0.0
 10
21.97123665351099
 20
-8.982699191984112
 30
0.0
 10
21.87596705473111
 20
-9.021496766147846
 30
0.0
 10
21.8159026621371
 20
-9.021496766147846
 30
0.0
 10
21.62536346457733
 20
-9.021496766147846
 30
0.0
 10
21.47707051444043
 20
-8.915593758152808
 30
0.0
 10
21.47707051444043
 20
-8.675623577214157
 30
0.0
 10
21.47707051444043
 20
-8.435653396275558
 30
0.0
 10
21.6535276295258
 20
-8.294401487375833
 30
0.0
 10
21.86533364551597
 20
-8.294401487375833
 30
0.0
 10
22.08058833476515
 20
-8.294401487375833
 30
0.0
 10
22.30302775997044
 20
-8.449735478749846
 30
0.0
 10
22.30302775997044
 20
-8.855673060277695
 30
0.0
 10
22.30302775997044
 20
-9.261466947086394
 30
0.0
 10
22.08058833476515
 20
-9.455598512624166
 30
0.0
 10
21.8406181538264
 20
-9.455598512624166
 30
0.0
 10
21.68183548919342
 20
-9.455598512624166
 30
0.0
 10
21.56529907198314
 20
-9.388636773511935
 30
0.0
 10
21.49115259691467
 20
-9.314490298443515
 30
0.0
 10
21.49115259691467
 20
-9.314490298443515
 30
0.0
 10
21.65007895626685
 20
-9.134440815380003
 30
0.0
 10
21.65007895626685
 20
-9.134440815380003
 30
0.0
  0
SPLINE
  5
1DE
330
1F
100
AcDbEntity
  8
Layer 1
 62
   179
420
  2301728
370
     9
100
AcDbSpline
210
0.0
220
0.0
230
1.0
 70
    11
 71
     3
 72
    17
 73
    13
 74
     0
 42
0.0000000001
 43
0.0000000001
 12
1.0
 22
0.0
 32
0.0
 13
1.0
 23
0.0
 33
0.0
 40
0.0
 40
0.0
 40
0.0
 40
0.0
 40
1.0
 40
1.0
 40
1.0
 40
2.0
 40
2.0
 40
2.0
 40
3.0
 40
3.0
 40
3.0
 40
4.0
 40
4.0
 40
4.0
 40
4.0
 10
22.01879960554139
 20
-8.714421151377918
 30
0.0
 10
21.99408411385182
 20
-8.557362823374381
 30
0.0
 10
21.92712237473959
 20
-8.520289585840171
 30
0.0
 10
21.87237468675307
 20
-8.520289585840171
 30
0.0
 10
21.80886162089988
 20
-8.520289585840171
 30
0.0
 10
21.75238959628377
 20
-8.557362823374381
 30
0.0
 10
21.75238959628377
 20
-8.675623577214157
 30
0.0
 10
21.75238959628377
 20
-8.783250921838695
 30
0.0
 10
21.81231029415875
 20
-8.809690750157744
 30
0.0
 10
21.87596705473111
 20
-8.809690750157744
 30
0.0
 10
21.92712237473959
 20
-8.809690750157744
 30
0.0
 10
21.97827769474805
 20
-8.783250921838695
 30
0.0
 10
22.01879960554139
 20
-8.714421151377918
 30
0.0
  0
SPLINE
  5
1DF
330
1F
100
AcDbEntity
  8
Layer 1
 62
   179
420
  2301728
370
     9
100
AcDbSpline
210
0.0
220
0.0
230
1.0
 70
    11
 71
     3
 72
    17
 73
    13
 74
     0
 42
0.0000000001
 43
0.0000000001
 12
1.0
 22
0.0
 32
0.0
 13
1.0
 23
0.0
 33
0.0
 40
0.0
 40
0.0
 40
0.0
 40
0.0
 40
1.0
 40
1.0
 40
1.0
 40
2.0
 40
2.0
 40
2.0
 40
3.0
 40
3.0
 40
3.0
 40
4.0
 40
4.0
 40
4.0
 40
4.0
 10
23.72362184118149
 20
-8.886135194543106
 30
0.0
 10
23.72362184118149
 20
-8.503188768075233
 30
0.0
 10
23.89303791502968
 20
-8.31078153916701
 30
0.0
 10
24.1400491372055
 20
-8.31078153916701
 30
0.0
 10
24.38706035938122
 20
-8.31078153916701
 30
0.0
 10
24.55647643322941
 20
-8.504913104704706
 30
0.0
 10
24.55647643322941
 20
-8.886135194543106
 30
0.0
 10
24.55647643322941
 20
-9.269081621010981
 30
0.0
 10
24.38706035938122
 20
-9.471978564415343
 30
0.0
 10
24.1400491372055
 20
-9.471978564415343
 30
0.0
 10
23.89303791502968
 20
-9.471978564415343
 30
0.0
 10
23.72362184118149
 20
-9.269081621010981
 30
0.0
 10
23.72362184118149
 20
-8.886135194543106
 30
0.0
  0
SPLINE
  5
1E0
330
1F
100
AcDbEntity
  8
Layer 1
 62
   179
420
  2301728
370
     9
100
AcDbSpline
210
0.0
220
0.0
230
1.0
 70
    11
 71
     3
 72
    17
 73
    13
 74
     0
 42
0.0000000001
 43
0.0000000001
 12
1.0
 22
0.0
 32
0.0
 13
1.0
 23
0.0
 33
0.0
 40
0.0
 40
0.0
 40
0.0
 40
0.0
 40
1.0
 40
1.0
 40
1.0
 40
2.0
 40
2.0
 40
2.0
 40
3.0
 40
3.0
 40
3.0
 40
4.0
 40
4.0
 40
4.0
 40
4.0
 10
24.27066763688996
 20
-8.886135194543106
 30
0.0
 10
24.27066763688996
 20
-8.589692988988418
 30
0.0
 10
24.2106032442958
 20
-8.54371067886844
 30
0.0
 10
24.1400491372055
 20
-8.54371067886844
 30
0.0
 10
24.0694950301151
 20
-8.54371067886844
 30
0.0
 10
24.00943063752094
 20
-8.589692988988418
 30
0.0
 10
24.00943063752094
 20
-8.886135194543106
 30
0.0
 10
24.00943063752094
 20
-9.182577400097797
 30
0.0
 10
24.0694950301151
 20
-9.239049424713837
 30
0.0
 10
24.1400491372055
 20
-9.239049424713837
 30
0.0
 10
24.2106032442958
 20
-9.239049424713837
 30
0.0
 10
24.27066763688996
 20
-9.182577400097797
 30
0.0
 10
24.27066763688996
 20
-8.886135194543106
 30
0.0
  0
POLYLINE
  5
1E1
330
1F
100
AcDbEntity
  8
Layer 1
 62
   179
420
  2301728
370
     9
100
AcDb2dPolyline
 66
     1
 10
0.0
 20
0.0
 30
0.0
  0
VERTEX
  5
1E2
330
1E1
100
AcDbEntity
  8
Layer 1
 62
   179
420
  2301728
370
     9
100
AcDbVertex
100
AcDb2dVertex
 10
34.16773029119902
 20
-9.905638715963631
 30
0.0
  0
VERTEX
  5
1E3
330
1E1
100
AcDbEntity
  8
Layer 1
 62
   179
420
  2301728
370
     9
100
AcDbVertex
100
AcDb2dVertex
 10
32.16771892756267
 20
-9.905638715963631
 30
0.0
  0
VERTEX
  5
1E4
330
1E1
100
AcDbEntity
  8
Layer 1
 62
   179
420
  2301728
370
     9
100
AcDbVertex
100
AcDb2dVertex
 10
32.16771892756267
 20
-7.905638715963631
 30
0.0
  0
VERTEX
  5
1E5
330
1E1
100
AcDbEntity
  8
Layer 1
 62
   179
420
  2301728
370
     9
100
AcDbVertex
100
AcDb2dVertex
 10
34.16773029119902
 20
-7.905638715963631
 30
0.0
  0
VERTEX
  5
1E6
330
1E1
100
AcDbEntity
  8
Layer 1
 62
   179
420
  2301728
370
     9
100
AcDbVertex
100
AcDb2dVertex
 10
34.16773029119902
 20
-9.905638715963631
 30
0.0
  0
SEQEND
  5
1E7
330
1E1
100
AcDbEntity
  8
Layer 1
 62
   179
420
  2301728
370
     9
  0
POLYLINE
  5
1E8
330
1F
100
AcDbEntity
  8
Layer 1
 62
   179
420
  2301728
370
     9
100
AcDb2dPolyline
 66
     1
 10
0.0
 20
0.0
 30
0.0
  0
VERTEX
  5
1E9
330
1E8
100
AcDbEntity
  8
Layer 1
 62
   179
420
  2301728
370
     9
100
AcDbVertex
100
AcDb2dVertex
 10
31.91773142553125
 20
-9.875
 30
0.0
  0
VERTEX
  5
1EA
330
1E8
100
AcDbEntity
  8
Layer 1
 62
   179
420
  2301728
370
     9
100
AcDbVertex
100
AcDb2dVertex
 10
29.91772006189492
 20
-9.875
 30
0.0
  0
VERTEX
  5
1EB
330
1E8
100
AcDbEntity
  8
Layer 1
 62
   179
420
  2301728
370
     9
100
AcDbVertex
100
AcDb2dVertex
 10
29.91772006189492
 20
-7.875
 30
0.0
  0
VERTEX
  5
1EC
330
1E8
100
AcDbEntity
  8
Layer 1
 62
   179
420
  2301728
370
     9
100
AcDbVertex
100
AcDb2dVertex
 10
31.91773142553125
 20
-7.875
 30
0.0
  0
VERTEX
  5
1ED
330
1E8
100
AcDbEntity
  8
Layer 1
 62
   179
420
  2301728
370
     9
100
AcDbVertex
100
AcDb2dVertex
 10
31.91773142553125
 20
-9.875
 30
0.0
  0
SEQEND
  5
1EE
330
1E8
100
AcDbEntity
  8
Layer 1
 62
   179
420
  2301728
370
     9
  0
POLYLINE
  5
1EF
330
1F
100
AcDbEntity
  8
Layer 1
 62
   179
420
  2301728
370
     9
100
AcDb2dPolyline
 66
     1
 10
0.0
 20
0.0
 30
0.0
  0
VERTEX
  5
1F0
330
1EF
100
AcDbEntity
  8
Layer 1
 62
   179
420
  2301728
370
     9
100
AcDbVertex
100
AcDb2dVertex
 10
29.66773029119905
 20
-9.875
 30
0.0
  0
VERTEX
  5
1F1
330
1EF
100
AcDbEntity
  8
Layer 1
 62
   179
420
  2301728
370
     9
100
AcDbVertex
100
AcDb2dVertex
 10
27.66771892756265
 20
-9.875
 30
0.0
  0
VERTEX
  5
1F2
330
1EF
100
AcDbEntity
  8
Layer 1
 62
   179
420
  2301728
370
     9
100
AcDbVertex
100
AcDb2dVertex
 10
27.66771892756265
 20
-7.875
 30
0.0
  0
VERTEX
  5
1F3
330
1EF
100
AcDbEntity
  8
Layer 1
 62
   179
420
  2301728
370
     9
100
AcDbVertex
100
AcDb2dVertex
 10
29.66773029119905
 20
-7.875
 30
0.0
  0
VERTEX
  5
1F4
330
1EF
100
AcDbEntity
  8
Layer 1
 62
   179
420
  2301728
370
     9
100
AcDbVertex
100
AcDb2dVertex
 10
29.66773029119905
 20
-9.875
 30
0.0
  0
SEQEND
  5
1F5
330
1EF
100
AcDbEntity
  8
Layer 1
 62
   179
420
  2301728
370
     9
  0
POLYLINE
  5
1F6
330
1F
100
AcDbEntity
  8
Layer 1
 62
   179
420
  2301728
370
     9
100
AcDb2dPolyline
 66
     1
 10
0.0
 20
0.0
 30
0.0
  0
VERTEX
  5
1F7
330
1F6
100
AcDbEntity
  8
Layer 1
 62
   179
420
  2301728
370
     9
100
AcDbVertex
100
AcDb2dVertex
 10
34.16773029119895
 20
-7.625
 30
0.0
  0
VERTEX
  5
1F8
330
1F6
100
AcDbEntity
  8
Layer 1
 62
   179
420
  2301728
370
     9
100
AcDbVertex
100
AcDb2dVertex
 10
32.1677189275627
 20
-7.625
 30
0.0
  0
VERTEX
  5
1F9
330
1F6
100
AcDbEntity
  8
Layer 1
 62
   179
420
  2301728
370
     9
100
AcDbVertex
100
AcDb2dVertex
 10
32.1677189275627
 20
-5.625
 30
0.0
  0
VERTEX
  5
1FA
330
1F6
100
AcDbEntity
  8
Layer 1
 62
   179
420
  2301728
370
     9
100
AcDbVertex
100
AcDb2dVertex
 10
34.16773029119895
 20
-5.625
 30
0.0
  0
VERTEX
  5
1FB
330
1F6
100
AcDbEntity
  8
Layer 1
 62
   179
420
  2301728
370
     9
100
AcDbVertex
100
AcDb2dVertex
 10
34.16773029119895
 20
-7.625
 30
0.0
  0
SEQEND
  5
1FC
330
1F6
100
AcDbEntity
  8
Layer 1
 62
   179
420
  2301728
370
     9
  0
POLYLINE
  5
1FD
330
1F
100
AcDbEntity
  8
Layer 1
 62
   179
420
  2301728
370
     9
100
AcDb2dPolyline
 66
     1
 10
0.0
 20
0.0
 30
0.0
  0
VERTEX
  5
1FE
330
1FD
100
AcDbEntity
  8
Layer 1
 62
   179
420
  2301728
370
     9
100
AcDbVertex
100
AcDb2dVertex
 10
32.4721369620744
 20
-9.905638715963631
 30
0.0
  0
VERTEX
  5
1FF
330
1FD
100
AcDbEntity
  8
Layer 1
 62
   179
420
  2301728
370
     9
100
AcDbVertex
100
AcDb2dVertex
 10
34.16773029119902
 20
-8.210045386839031
 30
0.0
  0
SEQEND
  5
200
330
1FD
100
AcDbEntity
  8
Layer 1
 62
   179
420
  2301728
370
     9
  0
POLYLINE
  5
201
330
1F
100
AcDbEntity
  8
Layer 1
 62
   179
420
  2301728
370
     9
100
AcDb2dPolyline
 66
     1
 10
0.0
 20
0.0
 30
0.0
  0
VERTEX
  5
202
330
201
100
AcDbEntity
  8
Layer 1
 62
   179
420
  2301728
370
     9
100
AcDbVertex
100
AcDb2dVertex
 10
29.91772006189492
 20
-9.027203335437711
 30
0.0
  0
VERTEX
  5
203
330
201
100
AcDbEntity
  8
Layer 1
 62
   179
420
  2301728
370
     9
100
AcDbVertex
100
AcDb2dVertex
 10
30.76551672645721
 20
-9.875
 30
0.0
  0
SEQEND
  5
204
330
201
100
AcDbEntity
  8
Layer 1
 62
   179
420
  2301728
370
     9
  0
POLYLINE
  5
205
330
1F
100
AcDbEntity
  8
Layer 1
 62
   179
420
  2301728
370
     9
100
AcDb2dPolyline
 66
     1
 10
0.0
 20
0.0
 30
0.0
  0
VERTEX
  5
206
330
205
100
AcDbEntity
  8
Layer 1
 62
   179
420
  2301728
370
     9
100
AcDbVertex
100
AcDb2dVertex
 10
28.36679300163675
 20
-7.875
 30
0.0
  0
VERTEX
  5
207
330
205
100
AcDbEntity
  8
Layer 1
 62
   179
420
  2301728
370
     9
100
AcDbVertex
100
AcDb2dVertex
 10
29.28345966830337
 20
-9.875
 30
0.0
  0
SEQEND
  5
208
330
205
100
AcDbEntity
  8
Layer 1
 62
   179
420
  2301728
370
     9
  0
POLYLINE
  5
209
330
1F
100
AcDbEntity
  8
Layer 1
 62
   179
420
  2301728
370
     9
100
AcDb2dPolyline
 66
     1
 10
0.0
 20
0.0
 30
0.0
  0
VERTEX
  5
20A
330
209
100
AcDbEntity
  8
Layer 1
 62
   179
420
  2301728
370
     9
100
AcDbVertex
100
AcDb2dVertex
 10
32.1677189275627
 20
-7.263888888888838
 30
0.0
  0
VERTEX
  5
20B
330
209
100
AcDbEntity
  8
Layer 1
 62
   179
420
  2301728
370
     9
100
AcDbVertex
100
AcDb2dVertex
 10
34.16773029119895
 20
-6.819444444444393
 30
0.0
  0
SEQEND
  5
20C
330
209
100
AcDbEntity
  8
Layer 1
 62
   179
420
  2301728
370
     9
  0
POLYLINE
  5
20D
330
1F
100
AcDbEntity
  8
Layer 1
 62
   179
420
  2301728
370
     9
100
AcDb2dPolyline
 66
     1
 10
0.0
 20
0.0
 30
0.0
  0
VERTEX
  5
20E
330
20D
100
AcDbEntity
  8
Layer 1
 62
   179
420
  2301728
370
     9
100
AcDbVertex
100
AcDb2dVertex
 10
29.66773029119895
 20
-3.125
 30
0.0
  0
VERTEX
  5
20F
330
20D
100
AcDbEntity
  8
Layer 1
 62
   179
420
  2301728
370
     9
100
AcDbVertex
100
AcDb2dVertex
 10
27.66771892756272
 20
-3.125
 30
0.0
  0
VERTEX
  5
210
330
20D
100
AcDbEntity
  8
Layer 1
 62
   179
420
  2301728
370
     9
100
AcDbVertex
100
AcDb2dVertex
 10
27.66771892756272
 20
-1.125
 30
0.0
  0
VERTEX
  5
211
330
20D
100
AcDbEntity
  8
Layer 1
 62
   179
420
  2301728
370
     9
100
AcDbVertex
100
AcDb2dVertex
 10
29.66773029119895
 20
-1.125
 30
0.0
  0
VERTEX
  5
212
330
20D
100
AcDbEntity
  8
Layer 1
 62
   179
420
  2301728
370
     9
100
AcDbVertex
100
AcDb2dVertex
 10
29.66773029119895
 20
-3.125
 30
0.0
  0
SEQEND
  5
213
330
20D
100
AcDbEntity
  8
Layer 1
 62
   179
420
  2301728
370
     9
  0
POLYLINE
  5
214
330
1F
100
AcDbEntity
  8
Layer 1
 62
   179
420
  2301728
370
     9
100
AcDb2dPolyline
 66
     1
 10
0.0
 20
0.0
 30
0.0
  0
VERTEX
  5
215
330
214
100
AcDbEntity
  8
Layer 1
 62
   179
420
  2301728
370
     9
100
AcDbVertex
100
AcDb2dVertex
 10
31.91773029119905
 20
-3.125
 30
0.0
  0
VERTEX
  5
216
330
214
100
AcDbEntity
  8
Layer 1
 62
   179
420
  2301728
370
     9
100
AcDbVertex
100
AcDb2dVertex
 10
29.91771892756265
 20
-3.125
 30
0.0
  0
VERTEX
  5
217
330
214
100
AcDbEntity
  8
Layer 1
 62
   179
420
  2301728
370
     9
100
AcDbVertex
100
AcDb2dVertex
 10
29.91771892756265
 20
-1.125
 30
0.0
  0
VERTEX
  5
218
330
214
100
AcDbEntity
  8
Layer 1
 62
   179
420
  2301728
370
     9
100
AcDbVertex
100
AcDb2dVertex
 10
31.91773029119905
 20
-1.125
 30
0.0
  0
VERTEX
  5
219
330
214
100
AcDbEntity
  8
Layer 1
 62
   179
420
  2301728
370
     9
100
AcDbVertex
100
AcDb2dVertex
 10
31.91773029119905
 20
-3.125
 30
0.0
  0
SEQEND
  5
21A
330
214
100
AcDbEntity
  8
Layer 1
 62
   179
420
  2301728
370
     9
  0
POLYLINE
  5
21B
330
1F
100
AcDbEntity
  8
Layer 1
 62
   179
420
  2301728
370
     9
100
AcDb2dPolyline
 66
     1
 10
0.0
 20
0.0
 30
0.0
  0
VERTEX
  5
21C
330
21B
100
AcDbEntity
  8
Layer 1
 62
   179
420
  2301728
370
     9
100
AcDbVertex
100
AcDb2dVertex
 10
34.16773029119897
 20
-3.12498545945818
 30
0.0
  0
VERTEX
  5
21D
330
21B
100
AcDbEntity
  8
Layer 1
 62
   179
420
  2301728
370
     9
100
AcDbVertex
100
AcDb2dVertex
 10
32.16771892756272
 20
-3.12498545945818
 30
0.0
  0
VERTEX
  5
21E
330
21B
100
AcDbEntity
  8
Layer 1
 62
   179
420
  2301728
370
     9
100
AcDbVertex
100
AcDb2dVertex
 10
32.16771892756272
 20
-1.12498545945818
 30
0.0
  0
VERTEX
  5
21F
330
21B
100
AcDbEntity
  8
Layer 1
 62
   179
420
  2301728
370
     9
100
AcDbVertex
100
AcDb2dVertex
 10
34.16773029119897
 20
-1.12498545945818
 30
0.0
  0
VERTEX
  5
220
330
21B
100
AcDbEntity
  8
Layer 1
 62
   179
420
  2301728
370
     9
100
AcDbVertex
100
AcDb2dVertex
 10
34.16773029119897
 20
-3.12498545945818
 30
0.0
  0
SEQEND
  5
221
330
21B
100
AcDbEntity
  8
Layer 1
 62
   179
420
  2301728
370
     9
  0
POLYLINE
  5
222
330
1F
100
AcDbEntity
  8
Layer 1
 62
   179
420
  2301728
370
     9
100
AcDb2dPolyline
 66
     1
 10
0.0
 20
0.0
 30
0.0
  0
VERTEX
  5
223
330
222
100
AcDbEntity
  8
Layer 1
 62
   179
420
  2301728
370
     9
100
AcDbVertex
100
AcDb2dVertex
 10
29.66773029119902
 20
-5.375
 30
0.0
  0
VERTEX
  5
224
330
222
100
AcDbEntity
  8
Layer 1
 62
   179
420
  2301728
370
     9
100
AcDbVertex
100
AcDb2dVertex
 10
27.66771892756265
 20
-5.375
 30
0.0
  0
VERTEX
  5
225
330
222
100
AcDbEntity
  8
Layer 1
 62
   179
420
  2301728
370
     9
100
AcDbVertex
100
AcDb2dVertex
 10
27.66771892756265
 20
-3.375
 30
0.0
  0
VERTEX
  5
226
330
222
100
AcDbEntity
  8
Layer 1
 62
   179
420
  2301728
370
     9
100
AcDbVertex
100
AcDb2dVertex
 10
29.66773029119902
 20
-3.375
 30
0.0
  0
VERTEX
  5
227
330
222
100
AcDbEntity
  8
Layer 1
 62
   179
420
  2301728
370
     9
100
AcDbVertex
100
AcDb2dVertex
 10
29.66773029119902
 20
-5.375
 30
0.0
  0
SEQEND
  5
228
330
222
100
AcDbEntity
  8
Layer 1
 62
   179
420
  2301728
370
     9
  0
POLYLINE
  5
229
330
1F
100
AcDbEntity
  8
Layer 1
 62
   179
420
  2301728
370
     9
100
AcDb2dPolyline
 66
     1
 10
0.0
 20
0.0
 30
0.0
  0
VERTEX
  5
22A
330
229
100
AcDbEntity
  8
Layer 1
 62
   179
420
  2301728
370
     9
100
AcDbVertex
100
AcDb2dVertex
 10
28.72322007152944
 20
-4.925975182732903
 30
0.0
  0
VERTEX
  5
22B
330
229
100
AcDbEntity
  8
Layer 1
 62
   179
420
  2301728
370
     9
100
AcDbVertex
100
AcDb2dVertex
 10
28.17224332353056
 20
-4.374998434734051
 30
0.0
  0
VERTEX
  5
22C
330
229
100
AcDbEntity
  8
Layer 1
 62
   179
420
  2301728
370
     9
100
AcDbVertex
100
AcDb2dVertex
 10
28.72321694099749
 20
-3.824024817267147
 30
0.0
  0
VERTEX
  5
22D
330
229
100
AcDbEntity
  8
Layer 1
 62
   179
420
  2301728
370
     9
100
AcDbVertex
100
AcDb2dVertex
 10
29.27419368899637
 20
-4.375001565265999
 30
0.0
  0
VERTEX
  5
22E
330
229
100
AcDbEntity
  8
Layer 1
 62
   179
420
  2301728
370
     9
100
AcDbVertex
100
AcDb2dVertex
 10
28.72322007152944
 20
-4.925975182732903
 30
0.0
  0
SEQEND
  5
22F
330
229
100
AcDbEntity
  8
Layer 1
 62
   179
420
  2301728
370
     9
  0
POLYLINE
  5
230
330
1F
100
AcDbEntity
  8
Layer 1
 62
   179
420
  2301728
370
     9
100
AcDb2dPolyline
 66
     1
 10
0.0
 20
0.0
 30
0.0
  0
VERTEX
  5
231
330
230
100
AcDbEntity
  8
Layer 1
 62
   179
420
  2301728
370
     9
100
AcDbVertex
100
AcDb2dVertex
 10
30.91772617464681
 20
-7.087572137677953
 30
0.0
  0
VERTEX
  5
232
330
230
100
AcDbEntity
  8
Layer 1
 62
   179
420
  2301728
370
     9
100
AcDbVertex
100
AcDb2dVertex
 10
30.76603662350554
 20
-6.935882586536636
 30
0.0
  0
VERTEX
  5
233
330
230
100
AcDbEntity
  8
Layer 1
 62
   179
420
  2301728
370
     9
100
AcDbVertex
100
AcDb2dVertex
 10
30.91772531277929
 20
-6.784193897262867
 30
0.0
  0
VERTEX
  5
234
330
230
100
AcDbEntity
  8
Layer 1
 62
   179
420
  2301728
370
     9
100
AcDbVertex
100
AcDb2dVertex
 10
31.06941486392068
 20
-6.935883448404184
 30
0.0
  0
VERTEX
  5
235
330
230
100
AcDbEntity
  8
Layer 1
 62
   179
420
  2301728
370
     9
100
AcDbVertex
100
AcDb2dVertex
 10
30.91772617464681
 20
-7.087572137677953
 30
0.0
  0
SEQEND
  5
236
330
230
100
AcDbEntity
  8
Layer 1
 62
   179
420
  2301728
370
     9
  0
POLYLINE
  5
237
330
1F
100
AcDbEntity
  8
Layer 1
 62
   179
420
  2301728
370
     9
100
AcDb2dPolyline
 66
     1
 10
0.0
 20
0.0
 30
0.0
  0
VERTEX
  5
238
330
237
100
AcDbEntity
  8
Layer 1
 62
   179
420
  2301728
370
     9
100
AcDbVertex
100
AcDb2dVertex
 10
31.2452518811811
 20
-6.927569394004498
 30
0.0
  0
VERTEX
  5
239
330
237
100
AcDbEntity
  8
Layer 1
 62
   179
420
  2301728
370
     9
100
AcDbVertex
100
AcDb2dVertex
 10
31.0935623300397
 20
-6.775879842863181
 30
0.0
  0
VERTEX
  5
23A
330
237
100
AcDbEntity
  8
Layer 1
 62
   179
420
  2301728
370
     9
100
AcDbVertex
100
AcDb2dVertex
 10
31.24525101931347
 20
-6.62419115358941
 30
0.0
  0
VERTEX
  5
23B
330
237
100
AcDbEntity
  8
Layer 1
 62
   179
420
  2301728
370
     9
100
AcDbVertex
100
AcDb2dVertex
 10
31.39694057045484
 20
-6.775880704730727
 30
0.0
  0
VERTEX
  5
23C
330
237
100
AcDbEntity
  8
Layer 1
 62
   179
420
  2301728
370
     9
100
AcDbVertex
100
AcDb2dVertex
 10
31.2452518811811
 20
-6.927569394004498
 30
0.0
  0
SEQEND
  5
23D
330
237
100
AcDbEntity
  8
Layer 1
 62
   179
420
  2301728
370
     9
  0
POLYLINE
  5
23E
330
1F
100
AcDbEntity
  8
Layer 1
 62
   179
420
  2301728
370
     9
100
AcDb2dPolyline
 66
     1
 10
0.0
 20
0.0
 30
0.0
  0
VERTEX
  5
23F
330
23E
100
AcDbEntity
  8
Layer 1
 62
   179
420
  2301728
370
     9
100
AcDbVertex
100
AcDb2dVertex
 10
30.278747515225
 20
-7.200688429361106
 30
0.0
  0
VERTEX
  5
240
330
23E
100
AcDbEntity
  8
Layer 1
 62
   179
420
  2301728
370
     9
100
AcDbVertex
100
AcDb2dVertex
 10
30.1270579640836
 20
-7.048998878219789
 30
0.0
  0
VERTEX
  5
241
330
23E
100
AcDbEntity
  8
Layer 1
 62
   179
420
  2301728
370
     9
100
AcDbVertex
100
AcDb2dVertex
 10
30.27874665335735
 20
-6.897310188946019
 30
0.0
  0
VERTEX
  5
242
330
23E
100
AcDbEntity
  8
Layer 1
 62
   179
420
  2301728
370
     9
100
AcDbVertex
100
AcDb2dVertex
 10
30.43043620449874
 20
-7.048999740087336
 30
0.0
  0
VERTEX
  5
243
330
23E
100
AcDbEntity
  8
Layer 1
 62
   179
420
  2301728
370
     9
100
AcDbVertex
100
AcDb2dVertex
 10
30.278747515225
 20
-7.200688429361106
 30
0.0
  0
SEQEND
  5
244
330
23E
100
AcDbEntity
  8
Layer 1
 62
   179
420
  2301728
370
     9
  0
POLYLINE
  5
245
330
1F
100
AcDbEntity
  8
Layer 1
 62
   179
420
  2301728
370
     9
100
AcDb2dPolyline
 66
     1
 10
0.0
 20
0.0
 30
0.0
  0
VERTEX
  5
246
330
245
100
AcDbEntity
  8
Layer 1
 62
   179
420
  2301728
370
     9
100
AcDbVertex
100
AcDb2dVertex
 10
30.56659373466292
 20
-6.248911247273226
 30
0.0
  0
VERTEX
  5
247
330
245
100
AcDbEntity
  8
Layer 1
 62
   179
420
  2301728
370
     9
100
AcDbVertex
100
AcDb2dVertex
 10
30.41490418352166
 20
-6.097221696131909
 30
0.0
  0
VERTEX
  5
248
330
245
100
AcDbEntity
  8
Layer 1
 62
   179
420
  2301728
370
     9
100
AcDbVertex
100
AcDb2dVertex
 10
30.5665928727954
 20
-5.945533006858138
 30
0.0
  0
VERTEX
  5
249
330
245
100
AcDbEntity
  8
Layer 1
 62
   179
420
  2301728
370
     9
100
AcDbVertex
100
AcDb2dVertex
 10
30.7182824239368
 20
-6.097222557999455
 30
0.0
  0
VERTEX
  5
24A
330
245
100
AcDbEntity
  8
Layer 1
 62
   179
420
  2301728
370
     9
100
AcDbVertex
100
AcDb2dVertex
 10
30.56659373466292
 20
-6.248911247273226
 30
0.0
  0
SEQEND
  5
24B
330
245
100
AcDbEntity
  8
Layer 1
 62
   179
420
  2301728
370
     9
  0
POLYLINE
  5
24C
330
1F
100
AcDbEntity
  8
Layer 1
 62
   179
420
  2301728
370
     9
100
AcDb2dPolyline
 66
     1
 10
0.0
 20
0.0
 30
0.0
  0
VERTEX
  5
24D
330
24C
100
AcDbEntity
  8
Layer 1
 62
   179
420
  2301728
370
     9
100
AcDbVertex
100
AcDb2dVertex
 10
31.50148697193208
 20
-6.174836621954985
 30
0.0
  0
VERTEX
  5
24E
330
24C
100
AcDbEntity
  8
Layer 1
 62
   179
420
  2301728
370
     9
100
AcDbVertex
100
AcDb2dVertex
 10
31.34979742079084
 20
-6.023147070813669
 30
0.0
  0
VERTEX
  5
24F
330
24C
100
AcDbEntity
  8
Layer 1
 62
   179
420
  2301728
370
     9
100
AcDbVertex
100
AcDb2dVertex
 10
31.50148611006458
 20
-5.871458381539898
 30
0.0
  0
VERTEX
  5
250
330
24C
100
AcDbEntity
  8
Layer 1
 62
   179
420
  2301728
370
     9
100
AcDbVertex
100
AcDb2dVertex
 10
31.65317566120583
 20
-6.023147932681215
 30
0.0
  0
VERTEX
  5
251
330
24C
100
AcDbEntity
  8
Layer 1
 62
   179
420
  2301728
370
     9
100
AcDbVertex
100
AcDb2dVertex
 10
31.50148697193208
 20
-6.174836621954985
 30
0.0
  0
SEQEND
  5
252
330
24C
100
AcDbEntity
  8
Layer 1
 62
   179
420
  2301728
370
     9
  0
POLYLINE
  5
253
330
1F
100
AcDbEntity
  8
Layer 1
 62
   179
420
  2301728
370
     9
100
AcDb2dPolyline
 66
     1
 10
0.0
 20
0.0
 30
0.0
  0
VERTEX
  5
254
330
253
100
AcDbEntity
  8
Layer 1
 62
   179
420
  2301728
370
     9
100
AcDbVertex
100
AcDb2dVertex
 10
31.76435248566582
 20
-7.44666999865232
 30
0.0
  0
VERTEX
  5
255
330
253
100
AcDbEntity
  8
Layer 1
 62
   179
420
  2301728
370
     9
100
AcDbVertex
100
AcDb2dVertex
 10
31.61266293452445
 20
-7.294980447511003
 30
0.0
  0
VERTEX
  5
256
330
253
100
AcDbEntity
  8
Layer 1
 62
   179
420
  2301728
370
     9
100
AcDbVertex
100
AcDb2dVertex
 10
31.76435162379832
 20
-7.143291758237233
 30
0.0
  0
VERTEX
  5
257
330
253
100
AcDbEntity
  8
Layer 1
 62
   179
420
  2301728
370
     9
100
AcDbVertex
100
AcDb2dVertex
 10
31.91604117493959
 20
-7.294981309378549
 30
0.0
  0
VERTEX
  5
258
330
253
100
AcDbEntity
  8
Layer 1
 62
   179
420
  2301728
370
     9
100
AcDbVertex
100
AcDb2dVertex
 10
31.76435248566582
 20
-7.44666999865232
 30
0.0
  0
SEQEND
  5
259
330
253
100
AcDbEntity
  8
Layer 1
 62
   179
420
  2301728
370
     9
  0
POLYLINE
  5
25A
330
1F
100
AcDbEntity
  8
Layer 1
 62
   179
420
  2301728
370
     9
100
AcDb2dPolyline
 66
     1
 10
0.0
 20
0.0
 30
0.0
  0
VERTEX
  5
25B
330
25A
100
AcDbEntity
  8
Layer 1
 62
   179
420
  2301728
370
     9
100
AcDbVertex
100
AcDb2dVertex
 10
31.0935623300397
 20
-7.624999353599352
 30
0.0
  0
VERTEX
  5
25C
330
25A
100
AcDbEntity
  8
Layer 1
 62
   179
420
  2301728
370
     9
100
AcDbVertex
100
AcDb2dVertex
 10
31.2452510193136
 20
-7.473310664325582
 30
0.0
  0
VERTEX
  5
25D
330
25A
100
AcDbEntity
  8
Layer 1
 62
   179
420
  2301728
370
     9
100
AcDbVertex
100
AcDb2dVertex
 10
31.39694057045484
 20
-7.625000215466899
 30
0.0
  0
SEQEND
  5
25E
330
25A
100
AcDbEntity
  8
Layer 1
 62
   179
420
  2301728
370
     9
  0
POLYLINE
  5
25F
330
1F
100
AcDbEntity
  8
Layer 1
 62
   179
420
  2301728
370
     9
100
AcDb2dPolyline
 66
     1
 10
0.0
 20
0.0
 30
0.0
  0
VERTEX
  5
260
330
25F
100
AcDbEntity
  8
Layer 1
 62
   179
420
  2301728
370
     9
100
AcDbVertex
100
AcDb2dVertex
 10
31.91773029119902
 20
-5.375
 30
0.0
  0
VERTEX
  5
261
330
25F
100
AcDbEntity
  8
Layer 1
 62
   179
420
  2301728
370
     9
100
AcDbVertex
100
AcDb2dVertex
 10
29.9177189275628
 20
-5.375
 30
0.0
  0
VERTEX
  5
262
330
25F
100
AcDbEntity
  8
Layer 1
 62
   179
420
  2301728
370
     9
100
AcDbVertex
100
AcDb2dVertex
 10
29.9177189275628
 20
-3.375
 30
0.0
  0
VERTEX
  5
263
330
25F
100
AcDbEntity
  8
Layer 1
 62
   179
420
  2301728
370
     9
100
AcDbVertex
100
AcDb2dVertex
 10
31.91773029119902
 20
-3.375
 30
0.0
  0
VERTEX
  5
264
330
25F
100
AcDbEntity
  8
Layer 1
 62
   179
420
  2301728
370
     9
100
AcDbVertex
100
AcDb2dVertex
 10
31.91773029119902
 20
-5.375
 30
0.0
  0
SEQEND
  5
265
330
25F
100
AcDbEntity
  8
Layer 1
 62
   179
420
  2301728
370
     9
  0
POLYLINE
  5
266
330
1F
100
AcDbEntity
  8
Layer 1
 62
   179
420
  2301728
370
     9
100
AcDb2dPolyline
 66
     1
 10
0.0
 20
0.0
 30
0.0
  0
VERTEX
  5
267
330
266
100
AcDbEntity
  8
Layer 1
 62
   179
420
  2301728
370
     9
100
AcDbVertex
100
AcDb2dVertex
 10
34.16773029119905
 20
-5.375000000000025
 30
0.0
  0
VERTEX
  5
268
330
266
100
AcDbEntity
  8
Layer 1
 62
   179
420
  2301728
370
     9
100
AcDbVertex
100
AcDb2dVertex
 10
32.16771892756265
 20
-5.375000000000025
 30
0.0
  0
VERTEX
  5
269
330
266
100
AcDbEntity
  8
Layer 1
 62
   179
420
  2301728
370
     9
100
AcDbVertex
100
AcDb2dVertex
 10
32.16771892756265
 20
-3.375000000000025
 30
0.0
  0
VERTEX
  5
26A
330
266
100
AcDbEntity
  8
Layer 1
 62
   179
420
  2301728
370
     9
100
AcDbVertex
100
AcDb2dVertex
 10
34.16773029119905
 20
-3.375000000000025
 30
0.0
  0
VERTEX
  5
26B
330
266
100
AcDbEntity
  8
Layer 1
 62
   179
420
  2301728
370
     9
100
AcDbVertex
100
AcDb2dVertex
 10
34.16773029119905
 20
-5.375000000000025
 30
0.0
  0
SEQEND
  5
26C
330
266
100
AcDbEntity
  8
Layer 1
 62
   179
420
  2301728
370
     9
  0
POLYLINE
  5
26D
330
1F
100
AcDbEntity
  8
Layer 1
 62
   179
420
  2301728
370
     9
100
AcDb2dPolyline
 66
     1
 10
0.0
 20
0.0
 30
0.0
  0
VERTEX
  5
26E
330
26D
100
AcDbEntity
  8
Layer 1
 62
   179
420
  2301728
370
     9
100
AcDbVertex
100
AcDb2dVertex
 10
29.66773029119897
 20
-7.625
 30
0.0
  0
VERTEX
  5
26F
330
26D
100
AcDbEntity
  8
Layer 1
 62
   179
420
  2301728
370
     9
100
AcDbVertex
100
AcDb2dVertex
 10
27.66771892756272
 20
-7.625
 30
0.0
  0
VERTEX
  5
270
330
26D
100
AcDbEntity
  8
Layer 1
 62
   179
420
  2301728
370
     9
100
AcDbVertex
100
AcDb2dVertex
 10
27.66771892756272
 20
-5.625
 30
0.0
  0
VERTEX
  5
271
330
26D
100
AcDbEntity
  8
Layer 1
 62
   179
420
  2301728
370
     9
100
AcDbVertex
100
AcDb2dVertex
 10
29.66773029119897
 20
-5.625
 30
0.0
  0
VERTEX
  5
272
330
26D
100
AcDbEntity
  8
Layer 1
 62
   179
420
  2301728
370
     9
100
AcDbVertex
100
AcDb2dVertex
 10
29.66773029119897
 20
-7.625
 30
0.0
  0
SEQEND
  5
273
330
26D
100
AcDbEntity
  8
Layer 1
 62
   179
420
  2301728
370
     9
  0
POLYLINE
  5
274
330
1F
100
AcDbEntity
  8
Layer 1
 62
   179
420
  2301728
370
     9
100
AcDb2dPolyline
 66
     1
 10
0.0
 20
0.0
 30
0.0
  0
VERTEX
  5
275
330
274
100
AcDbEntity
  8
Layer 1
 62
   179
420
  2301728
370
     9
100
AcDbVertex
100
AcDb2dVertex
 10
31.91773029119902
 20
-7.624999784533125
 30
0.0
  0
VERTEX
  5
276
330
274
100
AcDbEntity
  8
Layer 1
 62
   179
420
  2301728
370
     9
100
AcDbVertex
100
AcDb2dVertex
 10
29.91771892756265
 20
-7.624999784533125
 30
0.0
  0
VERTEX
  5
277
330
274
100
AcDbEntity
  8
Layer 1
 62
   179
420
  2301728
370
     9
100
AcDbVertex
100
AcDb2dVertex
 10
29.91771892756265
 20
-5.624999784533125
 30
0.0
  0
VERTEX
  5
278
330
274
100
AcDbEntity
  8
Layer 1
 62
   179
420
  2301728
370
     9
100
AcDbVertex
100
AcDb2dVertex
 10
31.91773029119902
 20
-5.624999784533125
 30
0.0
  0
VERTEX
  5
279
330
274
100
AcDbEntity
  8
Layer 1
 62
   179
420
  2301728
370
     9
100
AcDbVertex
100
AcDb2dVertex
 10
31.91773029119902
 20
-7.624999784533125
 30
0.0
  0
SEQEND
  5
27A
330
274
100
AcDbEntity
  8
Layer 1
 62
   179
420
  2301728
370
     9
  0
SPLINE
  5
27B
330
1F
100
AcDbEntity
  8
Layer 1
 62
   179
420
  2301728
370
     9
100
AcDbSpline
210
0.0
220
0.0
230
1.0
 70
    11
 71
     3
 72
    17
 73
    13
 74
     0
 42
0.0000000001
 43
0.0000000001
 12
1.0
 22
0.0
 32
0.0
 13
1.0
 23
0.0
 33
0.0
 40
0.0
 40
0.0
 40
0.0
 40
0.0
 40
1.0
 40
1.0
 40
1.0
 40
2.0
 40
2.0
 40
2.0
 40
3.0
 40
3.0
 40
3.0
 40
4.0
 40
4.0
 40
4.0
 40
4.0
 10
31.00105794272013
 20
-3.647420247395808
 30
0.0
 10
31.00105794272013
 20
-3.693443976549057
 30
0.0
 10
30.96374833853418
 20
-3.730753580735002
 30
0.0
 10
30.91772460938083
 20
-3.730753580735002
 30
0.0
 10
30.87170088022764
 20
-3.730753580735002
 30
0.0
 10
30.83439127604166
 20
-3.693443976549057
 30
0.0
 10
30.83439127604166
 20
-3.647420247395808
 30
0.0
 10
30.83439127604166
 20
-3.601396518242584
 30
0.0
 10
30.87170088022764
 20
-3.564086914056638
 30
0.0
 10
30.91772460938083
 20
-3.564086914056638
 30
0.0
 10
30.96374833853418
 20
-3.564086914056638
 30
0.0
 10
31.00105794272013
 20
-3.601396518242584
 30
0.0
 10
31.00105794272013
 20
-3.647420247395808
 30
0.0
  0
SPLINE
  5
27C
330
1F
100
AcDbEntity
  8
Layer 1
 62
   179
420
  2301728
370
     9
100
AcDbSpline
210
0.0
220
0.0
230
1.0
 70
    11
 71
     3
 72
    17
 73
    13
 74
     0
 42
0.0000000001
 43
0.0000000001
 12
1.0
 22
0.0
 32
0.0
 13
1.0
 23
0.0
 33
0.0
 40
0.0
 40
0.0
 40
0.0
 40
0.0
 40
1.0
 40
1.0
 40
1.0
 40
2.0
 40
2.0
 40
2.0
 40
3.0
 40
3.0
 40
3.0
 40
4.0
 40
4.0
 40
4.0
 40
4.0
 10
31.40256593724237
 20
-2.124985459458154
 30
0.0
 10
31.40256593724237
 20
-2.392755930908985
 30
0.0
 10
31.18549508083139
 20
-2.609826787319813
 30
0.0
 10
30.91772460938071
 20
-2.609826787319813
 30
0.0
 10
30.64995413793
 20
-2.609826787319813
 30
0.0
 10
30.43288328151933
 20
-2.392755930908985
 30
0.0
 10
30.43288328151933
 20
-2.124985459458154
 30
0.0
 10
30.43288328151933
 20
-1.857214988007475
 30
0.0
 10
30.64995413793
 20
-1.640144131596647
 30
0.0
 10
30.91772460938071
 20
-1.640144131596647
 30
0.0
 10
31.18549508083139
 20
-1.640144131596647
 30
0.0
 10
31.40256593724237
 20
-1.857214988007475
 30
0.0
 10
31.40256593724237
 20
-2.124985459458154
 30
0.0
  0
SPLINE
  5
27D
330
1F
100
AcDbEntity
  8
Layer 1
 62
   179
420
  2301728
370
     9
100
AcDbSpline
210
0.0
220
0.0
230
1.0
 70
     8
 71
     3
 72
    17
 73
    13
 74
     0
 42
0.0000000001
 43
0.0000000001
 12
1.0
 22
0.0
 32
0.0
 13
1.0
 23
0.0
 33
0.0
 40
0.0
 40
0.0
 40
0.0
 40
0.0
 40
1.0
 40
1.0
 40
1.0
 40
2.0
 40
2.0
 40
2.0
 40
3.0
 40
3.0
 40
3.0
 40
4.0
 40
4.0
 40
4.0
 40
4.0
 10
29.91518112145652
 20
-3.570635684608002
 30
0.0
 10
29.92515099899515
 20
-3.566418773213576
 30
0.0
 10
29.93611231834125
 20
-3.564086914056638
 30
0.0
 10
29.94761827257528
 20
-3.564086914056638
 30
0.0
 10
29.99364200172863
 20
-3.564086914056638
 30
0.0
 10
30.03095160591457
 20
-3.601396518242584
 30
0.0
 10
30.03095160591457
 20
-3.647420247395808
 30
0.0
 10
30.03095160591457
 20
-3.693443976549057
 30
0.0
 10
29.99364200172863
 20
-3.730753580735002
 30
0.0
 10
29.94761827257528
 20
-3.730753580735002
 30
0.0
 10
29.93705618629502
 20
-3.730753580735002
 30
0.0
 10
29.92695304390751
 20
-3.728788608342761
 30
0.0
 10
29.91765446718765
 20
-3.725204285333044
 30
0.0
  0
SPLINE
  5
27E
330
1F
100
AcDbEntity
  8
Layer 1
 62
   179
420
  2301728
370
     9
100
AcDbSpline
210
0.0
220
0.0
230
1.0
 70
     8
 71
     3
 72
    17
 73
    13
 74
     0
 42
0.0000000001
 43
0.0000000001
 12
1.0
 22
0.0
 32
0.0
 13
1.0
 23
0.0
 33
0.0
 40
0.0
 40
0.0
 40
0.0
 40
0.0
 40
1.0
 40
1.0
 40
1.0
 40
2.0
 40
2.0
 40
2.0
 40
3.0
 40
3.0
 40
3.0
 40
4.0
 40
4.0
 40
4.0
 40
4.0
 10
29.91518112145652
 20
-4.540742021413558
 30
0.0
 10
29.92515099899515
 20
-4.536525110019132
 30
0.0
 10
29.93611231834125
 20
-4.534193250862194
 30
0.0
 10
29.94761827257528
 20
-4.534193250862194
 30
0.0
 10
29.99364200172863
 20
-4.534193250862194
 30
0.0
 10
30.03095160591457
 20
-4.571502855048139
 30
0.0
 10
30.03095160591457
 20
-4.617526584201364
 30
0.0
 10
30.03095160591457
 20
-4.663550313354613
 30
0.0
 10
29.99364200172863
 20
-4.700859917540558
 30
0.0
 10
29.94761827257528
 20
-4.700859917540558
 30
0.0
 10
29.93710113134307
 20
-4.700859917540558
 30
0.0
 10
29.92703903640848
 20
-4.698911632736402
 30
0.0
 10
29.91777321610235
 20
-4.695356291458666
 30
0.0
  0
SPLINE
  5
27F
330
1F
100
AcDbEntity
  8
Layer 1
 62
   179
420
  2301728
370
     9
100
AcDbSpline
210
0.0
220
0.0
230
1.0
 70
    11
 71
     3
 72
    17
 73
    13
 74
     0
 42
0.0000000001
 43
0.0000000001
 12
1.0
 22
0.0
 32
0.0
 13
1.0
 23
0.0
 33
0.0
 40
0.0
 40
0.0
 40
0.0
 40
0.0
 40
1.0
 40
1.0
 40
1.0
 40
2.0
 40
2.0
 40
2.0
 40
3.0
 40
3.0
 40
3.0
 40
4.0
 40
4.0
 40
4.0
 40
4.0
 10
31.48611111112291
 20
-3.647420247395808
 30
0.0
 10
31.48611111112291
 20
-3.693443976549057
 30
0.0
 10
31.44880150693696
 20
-3.730753580735002
 30
0.0
 10
31.40277777778361
 20
-3.730753580735002
 30
0.0
 10
31.35675404863041
 20
-3.730753580735002
 30
0.0
 10
31.31944444444444
 20
-3.693443976549057
 30
0.0
 10
31.31944444444444
 20
-3.647420247395808
 30
0.0
 10
31.31944444444444
 20
-3.601396518242609
 30
0.0
 10
31.35675404863041
 20
-3.564086914056664
 30
0.0
 10
31.40277777778361
 20
-3.564086914056664
 30
0.0
 10
31.44880150693696
 20
-3.564086914056664
 30
0.0
 10
31.48611111112291
 20
-3.601396518242609
 30
0.0
 10
31.48611111112291
 20
-3.647420247395808
 30
0.0
  0
SPLINE
  5
280
330
1F
100
AcDbEntity
  8
Layer 1
 62
   179
420
  2301728
370
     9
100
AcDbSpline
210
0.0
220
0.0
230
1.0
 70
     8
 71
     3
 72
    17
 73
    13
 74
     0
 42
0.0000000001
 43
0.0000000001
 12
1.0
 22
0.0
 32
0.0
 13
1.0
 23
0.0
 33
0.0
 40
0.0
 40
0.0
 40
0.0
 40
0.0
 40
1.0
 40
1.0
 40
1.0
 40
2.0
 40
2.0
 40
2.0
 40
3.0
 40
3.0
 40
3.0
 40
4.0
 40
4.0
 40
4.0
 40
4.0
 10
31.92026809730515
 20
-3.724204810183639
 30
0.0
 10
31.91029821976667
 20
-3.728421721578065
 30
0.0
 10
31.89933690042057
 20
-3.730753580735002
 30
0.0
 10
31.88783094618639
 20
-3.730753580735002
 30
0.0
 10
31.84180721703319
 20
-3.730753580735002
 30
0.0
 10
31.80449761284722
 20
-3.693443976549057
 30
0.0
 10
31.80449761284722
 20
-3.647420247395808
 30
0.0
 10
31.80449761284722
 20
-3.601396518242609
 30
0.0
 10
31.84180721703319
 20
-3.564086914056664
 30
0.0
 10
31.88783094618639
 20
-3.564086914056664
 30
0.0
 10
31.89839303246668
 20
-3.564086914056664
 30
0.0
 10
31.90849617485418
 20
-3.566051886448905
 30
0.0
 10
31.91779475157417
 20
-3.569636209458622
 30
0.0
  0
SPLINE
  5
281
330
1F
100
AcDbEntity
  8
Layer 1
 62
   179
420
  2301728
370
     9
100
AcDbSpline
210
0.0
220
0.0
230
1.0
 70
    11
 71
     3
 72
    17
 73
    13
 74
     0
 42
0.0000000001
 43
0.0000000001
 12
1.0
 22
0.0
 32
0.0
 13
1.0
 23
0.0
 33
0.0
 40
0.0
 40
0.0
 40
0.0
 40
0.0
 40
1.0
 40
1.0
 40
1.0
 40
2.0
 40
2.0
 40
2.0
 40
3.0
 40
3.0
 40
3.0
 40
4.0
 40
4.0
 40
4.0
 40
4.0
 10
31.00105794272013
 20
-4.617526584201364
 30
0.0
 10
31.00105794272013
 20
-4.663550313354613
 30
0.0
 10
30.96374833853418
 20
-4.700859917540558
 30
0.0
 10
30.91772460938083
 20
-4.700859917540558
 30
0.0
 10
30.87170088022764
 20
-4.700859917540558
 30
0.0
 10
30.83439127604166
 20
-4.663550313354613
 30
0.0
 10
30.83439127604166
 20
-4.617526584201364
 30
0.0
 10
30.83439127604166
 20
-4.571502855048139
 30
0.0
 10
30.87170088022764
 20
-4.534193250862194
 30
0.0
 10
30.91772460938083
 20
-4.534193250862194
 30
0.0
 10
30.96374833853418
 20
-4.534193250862194
 30
0.0
 10
31.00105794272013
 20
-4.571502855048139
 30
0.0
 10
31.00105794272013
 20
-4.617526584201364
 30
0.0
  0
SPLINE
  5
282
330
1F
100
AcDbEntity
  8
Layer 1
 62
   179
420
  2301728
370
     9
100
AcDbSpline
210
0.0
220
0.0
230
1.0
 70
    11
 71
     3
 72
    17
 73
    13
 74
     0
 42
0.0000000001
 43
0.0000000001
 12
1.0
 22
0.0
 32
0.0
 13
1.0
 23
0.0
 33
0.0
 40
0.0
 40
0.0
 40
0.0
 40
0.0
 40
1.0
 40
1.0
 40
1.0
 40
2.0
 40
2.0
 40
2.0
 40
3.0
 40
3.0
 40
3.0
 40
4.0
 40
4.0
 40
4.0
 40
4.0
 10
31.48611111112291
 20
-4.617526584201364
 30
0.0
 10
31.48611111112291
 20
-4.663550313354613
 30
0.0
 10
31.44880150693696
 20
-4.700859917540558
 30
0.0
 10
31.40277777778361
 20
-4.700859917540558
 30
0.0
 10
31.35675404863041
 20
-4.700859917540558
 30
0.0
 10
31.31944444444444
 20
-4.663550313354613
 30
0.0
 10
31.31944444444444
 20
-4.617526584201364
 30
0.0
 10
31.31944444444444
 20
-4.571502855048164
 30
0.0
 10
31.35675404863041
 20
-4.534193250862219
 30
0.0
 10
31.40277777778361
 20
-4.534193250862219
 30
0.0
 10
31.44880150693696
 20
-4.534193250862219
 30
0.0
 10
31.48611111112291
 20
-4.571502855048164
 30
0.0
 10
31.48611111112291
 20
-4.617526584201364
 30
0.0
  0
SPLINE
  5
283
330
1F
100
AcDbEntity
  8
Layer 1
 62
   179
420
  2301728
370
     9
100
AcDbSpline
210
0.0
220
0.0
230
1.0
 70
    11
 71
     3
 72
    17
 73
    13
 74
     0
 42
0.0000000001
 43
0.0000000001
 12
1.0
 22
0.0
 32
0.0
 13
1.0
 23
0.0
 33
0.0
 40
0.0
 40
0.0
 40
0.0
 40
0.0
 40
1.0
 40
1.0
 40
1.0
 40
2.0
 40
2.0
 40
2.0
 40
3.0
 40
3.0
 40
3.0
 40
4.0
 40
4.0
 40
4.0
 40
4.0
 10
30.75853135851861
 20
-4.132473415798611
 30
0.0
 10
30.75853135851861
 20
-4.17849714495186
 30
0.0
 10
30.72122175433265
 20
-4.215806749137806
 30
0.0
 10
30.67519802517944
 20
-4.215806749137806
 30
0.0
 10
30.62917429602625
 20
-4.215806749137806
 30
0.0
 10
30.59186469184028
 20
-4.17849714495186
 30
0.0
 10
30.59186469184028
 20
-4.132473415798611
 30
0.0
 10
30.59186469184028
 20
-4.086449686645387
 30
0.0
 10
30.62917429602625
 20
-4.049140082459441
 30
0.0
 10
30.67519802517944
 20
-4.049140082459441
 30
0.0
 10
30.72122175433265
 20
-4.049140082459441
 30
0.0
 10
30.75853135851861
 20
-4.086449686645387
 30
0.0
 10
30.75853135851861
 20
-4.132473415798611
 30
0.0
  0
SPLINE
  5
284
330
1F
100
AcDbEntity
  8
Layer 1
 62
   179
420
  2301728
370
     9
100
AcDbSpline
210
0.0
220
0.0
230
1.0
 70
    11
 71
     3
 72
    17
 73
    13
 74
     0
 42
0.0000000001
 43
0.0000000001
 12
1.0
 22
0.0
 32
0.0
 13
1.0
 23
0.0
 33
0.0
 40
0.0
 40
0.0
 40
0.0
 40
0.0
 40
1.0
 40
1.0
 40
1.0
 40
2.0
 40
2.0
 40
2.0
 40
3.0
 40
3.0
 40
3.0
 40
4.0
 40
4.0
 40
4.0
 40
4.0
 10
30.27347819011596
 20
-4.132473415798611
 30
0.0
 10
30.27347819011596
 20
-4.17849714495186
 30
0.0
 10
30.23616858593002
 20
-4.215806749137806
 30
0.0
 10
30.19014485677667
 20
-4.215806749137806
 30
0.0
 10
30.14412112762347
 20
-4.215806749137806
 30
0.0
 10
30.1068115234375
 20
-4.17849714495186
 30
0.0
 10
30.1068115234375
 20
-4.132473415798611
 30
0.0
 10
30.1068115234375
 20
-4.086449686645387
 30
0.0
 10
30.14412112762347
 20
-4.049140082459441
 30
0.0
 10
30.19014485677667
 20
-4.049140082459441
 30
0.0
 10
30.23616858593002
 20
-4.049140082459441
 30
0.0
 10
30.27347819011596
 20
-4.086449686645387
 30
0.0
 10
30.27347819011596
 20
-4.132473415798611
 30
0.0
  0
SPLINE
  5
285
330
1F
100
AcDbEntity
  8
Layer 1
 62
   179
420
  2301728
370
     9
100
AcDbSpline
210
0.0
220
0.0
230
1.0
 70
    11
 71
     3
 72
    17
 73
    13
 74
     0
 42
0.0000000001
 43
0.0000000001
 12
1.0
 22
0.0
 32
0.0
 13
1.0
 23
0.0
 33
0.0
 40
0.0
 40
0.0
 40
0.0
 40
0.0
 40
1.0
 40
1.0
 40
1.0
 40
2.0
 40
2.0
 40
2.0
 40
3.0
 40
3.0
 40
3.0
 40
4.0
 40
4.0
 40
4.0
 40
4.0
 10
31.72863769532417
 20
-4.132473415798611
 30
0.0
 10
31.72863769532417
 20
-4.17849714495186
 30
0.0
 10
31.6913280911382
 20
-4.215806749137806
 30
0.0
 10
31.645304361985
 20
-4.215806749137806
 30
0.0
 10
31.5992806328318
 20
-4.215806749137806
 30
0.0
 10
31.56197102864583
 20
-4.17849714495186
 30
0.0
 10
31.56197102864583
 20
-4.132473415798611
 30
0.0
 10
31.56197102864583
 20
-4.086449686645412
 30
0.0
 10
31.5992806328318
 20
-4.049140082459467
 30
0.0
 10
31.645304361985
 20
-4.049140082459467
 30
0.0
 10
31.6913280911382
 20
-4.049140082459467
 30
0.0
 10
31.72863769532417
 20
-4.086449686645412
 30
0.0
 10
31.72863769532417
 20
-4.132473415798611
 30
0.0
  0
SPLINE
  5
286
330
1F
100
AcDbEntity
  8
Layer 1
 62
   179
420
  2301728
370
     9
100
AcDbSpline
210
0.0
220
0.0
230
1.0
 70
    11
 71
     3
 72
    17
 73
    13
 74
     0
 42
0.0000000001
 43
0.0000000001
 12
1.0
 22
0.0
 32
0.0
 13
1.0
 23
0.0
 33
0.0
 40
0.0
 40
0.0
 40
0.0
 40
0.0
 40
1.0
 40
1.0
 40
1.0
 40
2.0
 40
2.0
 40
2.0
 40
3.0
 40
3.0
 40
3.0
 40
4.0
 40
4.0
 40
4.0
 40
4.0
 10
30.75853135851861
 20
-5.102579752604166
 30
0.0
 10
30.75853135851861
 20
-5.148603481757416
 30
0.0
 10
30.72122175433265
 20
-5.185913085943361
 30
0.0
 10
30.67519802517944
 20
-5.185913085943361
 30
0.0
 10
30.62917429602625
 20
-5.185913085943361
 30
0.0
 10
30.59186469184028
 20
-5.148603481757416
 30
0.0
 10
30.59186469184028
 20
-5.102579752604166
 30
0.0
 10
30.59186469184028
 20
-5.056556023450942
 30
0.0
 10
30.62917429602625
 20
-5.019246419264997
 30
0.0
 10
30.67519802517944
 20
-5.019246419264997
 30
0.0
 10
30.72122175433265
 20
-5.019246419264997
 30
0.0
 10
30.75853135851861
 20
-5.056556023450942
 30
0.0
 10
30.75853135851861
 20
-5.102579752604166
 30
0.0
  0
SPLINE
  5
287
330
1F
100
AcDbEntity
  8
Layer 1
 62
   179
420
  2301728
370
     9
100
AcDbSpline
210
0.0
220
0.0
230
1.0
 70
    11
 71
     3
 72
    17
 73
    13
 74
     0
 42
0.0000000001
 43
0.0000000001
 12
1.0
 22
0.0
 32
0.0
 13
1.0
 23
0.0
 33
0.0
 40
0.0
 40
0.0
 40
0.0
 40
0.0
 40
1.0
 40
1.0
 40
1.0
 40
2.0
 40
2.0
 40
2.0
 40
3.0
 40
3.0
 40
3.0
 40
4.0
 40
4.0
 40
4.0
 40
4.0
 10
31.24358452692139
 20
-5.102579752604166
 30
0.0
 10
31.24358452692139
 20
-5.148603481757416
 30
0.0
 10
31.20627492273542
 20
-5.185913085943361
 30
0.0
 10
31.16025119358222
 20
-5.185913085943361
 30
0.0
 10
31.11422746442902
 20
-5.185913085943361
 30
0.0
 10
31.07691786024305
 20
-5.148603481757416
 30
0.0
 10
31.07691786024305
 20
-5.102579752604166
 30
0.0
 10
31.07691786024305
 20
-5.056556023450942
 30
0.0
 10
31.11422746442902
 20
-5.019246419264997
 30
0.0
 10
31.16025119358222
 20
-5.019246419264997
 30
0.0
 10
31.20627492273542
 20
-5.019246419264997
 30
0.0
 10
31.24358452692139
 20
-5.056556023450942
 30
0.0
 10
31.24358452692139
 20
-5.102579752604166
 30
0.0
  0
SPLINE
  5
288
330
1F
100
AcDbEntity
  8
Layer 1
 62
   179
420
  2301728
370
     9
100
AcDbSpline
210
0.0
220
0.0
230
1.0
 70
    11
 71
     3
 72
    17
 73
    13
 74
     0
 42
0.0000000001
 43
0.0000000001
 12
1.0
 22
0.0
 32
0.0
 13
1.0
 23
0.0
 33
0.0
 40
0.0
 40
0.0
 40
0.0
 40
0.0
 40
1.0
 40
1.0
 40
1.0
 40
2.0
 40
2.0
 40
2.0
 40
3.0
 40
3.0
 40
3.0
 40
4.0
 40
4.0
 40
4.0
 40
4.0
 10
31.72863769532417
 20
-5.102579752604166
 30
0.0
 10
31.72863769532417
 20
-5.148603481757416
 30
0.0
 10
31.6913280911382
 20
-5.185913085943361
 30
0.0
 10
31.645304361985
 20
-5.185913085943361
 30
0.0
 10
31.5992806328318
 20
-5.185913085943361
 30
0.0
 10
31.56197102864583
 20
-5.148603481757416
 30
0.0
 10
31.56197102864583
 20
-5.102579752604166
 30
0.0
 10
31.56197102864583
 20
-5.056556023450967
 30
0.0
 10
31.5992806328318
 20
-5.019246419265023
 30
0.0
 10
31.645304361985
 20
-5.019246419265023
 30
0.0
 10
31.6913280911382
 20
-5.019246419265023
 30
0.0
 10
31.72863769532417
 20
-5.056556023450967
 30
0.0
 10
31.72863769532417
 20
-5.102579752604166
 30
0.0
  0
POLYLINE
  5
289
330
1F
100
AcDbEntity
  8
Layer 1
 62
   179
420
  2301728
370
     9
100
AcDb2dPolyline
 66
     1
 10
0.0
 20
0.0
 30
0.0
  0
VERTEX
  5
28A
330
289
100
AcDbEntity
  8
Layer 1
 62
   179
420
  2301728
370
     9
100
AcDbVertex
100
AcDb2dVertex
 10
32.82041606884265
 20
-4.023625823094966
 30
0.0
  0
VERTEX
  5
28B
330
289
100
AcDbEntity
  8
Layer 1
 62
   179
420
  2301728
370
     9
100
AcDbVertex
100
AcDb2dVertex
 10
32.9105605787346
 20
-4.023625823099059
 30
0.0
  0
VERTEX
  5
28C
330
289
100
AcDbEntity
  8
Layer 1
 62
   179
420
  2301728
370
     9
100
AcDbVertex
100
AcDb2dVertex
 10
32.82041606884265
 20
-3.847222342532581
 30
0.0
  0
VERTEX
  5
28D
330
289
100
AcDbEntity
  8
Layer 1
 62
   179
420
  2301728
370
     9
100
AcDbVertex
100
AcDb2dVertex
 10
32.73027155895071
 20
-4.023625823096987
 30
0.0
  0
VERTEX
  5
28E
330
289
100
AcDbEntity
  8
Layer 1
 62
   179
420
  2301728
370
     9
100
AcDbVertex
100
AcDb2dVertex
 10
32.82041606884265
 20
-4.023625823094966
 30
0.0
  0
SEQEND
  5
28F
330
289
100
AcDbEntity
  8
Layer 1
 62
   179
420
  2301728
370
     9
  0
POLYLINE
  5
290
330
1F
100
AcDbEntity
  8
Layer 1
 62
   179
420
  2301728
370
     9
100
AcDb2dPolyline
 66
     1
 10
0.0
 20
0.0
 30
0.0
  0
VERTEX
  5
291
330
290
100
AcDbEntity
  8
Layer 1
 62
   179
420
  2301728
370
     9
100
AcDbVertex
100
AcDb2dVertex
 10
28.66772460938076
 20
-2.544064002814265
 30
0.0
  0
VERTEX
  5
292
330
290
100
AcDbEntity
  8
Layer 1
 62
   179
420
  2301728
370
     9
100
AcDbVertex
100
AcDb2dVertex
 10
29.0960339576716
 20
-2.544064002833693
 30
0.0
  0
VERTEX
  5
293
330
290
100
AcDbEntity
  8
Layer 1
 62
   179
420
  2301728
370
     9
100
AcDbVertex
100
AcDb2dVertex
 10
28.66772460938076
 20
-1.705906916082666
 30
0.0
  0
VERTEX
  5
294
330
290
100
AcDbEntity
  8
Layer 1
 62
   179
420
  2301728
370
     9
100
AcDbVertex
100
AcDb2dVertex
 10
28.23941526109007
 20
-2.544064002823865
 30
0.0
  0
VERTEX
  5
295
330
290
100
AcDbEntity
  8
Layer 1
 62
   179
420
  2301728
370
     9
100
AcDbVertex
100
AcDb2dVertex
 10
28.66772460938076
 20
-2.544064002814265
 30
0.0
  0
SEQEND
  5
296
330
290
100
AcDbEntity
  8
Layer 1
 62
   179
420
  2301728
370
     9
  0
POLYLINE
  5
297
330
1F
100
AcDbEntity
  8
Layer 1
 62
   179
420
  2301728
370
     9
100
AcDb2dPolyline
 66
     1
 10
0.0
 20
0.0
 30
0.0
  0
VERTEX
  5
298
330
297
100
AcDbEntity
  8
Layer 1
 62
   179
420
  2301728
370
     9
100
AcDbVertex
100
AcDb2dVertex
 10
32.36809219965723
 20
-3.981603556966219
 30
0.0
  0
VERTEX
  5
299
330
297
100
AcDbEntity
  8
Layer 1
 62
   179
420
  2301728
370
     9
100
AcDbVertex
100
AcDb2dVertex
 10
32.45823670954918
 20
-3.981603556970311
 30
0.0
  0
VERTEX
  5
29A
330
297
100
AcDbEntity
  8
Layer 1
 62
   179
420
  2301728
370
     9
100
AcDbVertex
100
AcDb2dVertex
 10
32.36809219965723
 20
-3.805200076403834
 30
0.0
  0
VERTEX
  5
29B
330
297
100
AcDbEntity
  8
Layer 1
 62
   179
420
  2301728
370
     9
100
AcDbVertex
100
AcDb2dVertex
 10
32.27794768976529
 20
-3.98160355696824
 30
0.0
  0
VERTEX
  5
29C
330
297
100
AcDbEntity
  8
Layer 1
 62
   179
420
  2301728
370
     9
100
AcDbVertex
100
AcDb2dVertex
 10
32.36809219965723
 20
-3.981603556966219
 30
0.0
  0
SEQEND
  5
29D
330
297
100
AcDbEntity
  8
Layer 1
 62
   179
420
  2301728
370
     9
  0
POLYLINE
  5
29E
330
1F
100
AcDbEntity
  8
Layer 1
 62
   179
420
  2301728
370
     9
100
AcDb2dPolyline
 66
     1
 10
0.0
 20
0.0
 30
0.0
  0
VERTEX
  5
29F
330
29E
100
AcDbEntity
  8
Layer 1
 62
   179
420
  2301728
370
     9
100
AcDbVertex
100
AcDb2dVertex
 10
33.57106907440349
 20
-4.023625823094966
 30
0.0
  0
VERTEX
  5
2A0
330
29E
100
AcDbEntity
  8
Layer 1
 62
   179
420
  2301728
370
     9
100
AcDbVertex
100
AcDb2dVertex
 10
33.66121358429543
 20
-4.023625823099059
 30
0.0
  0
VERTEX
  5
2A1
330
29E
100
AcDbEntity
  8
Layer 1
 62
   179
420
  2301728
370
     9
100
AcDbVertex
100
AcDb2dVertex
 10
33.57106907440349
 20
-3.847222342532581
 30
0.0
  0
VERTEX
  5
2A2
330
29E
100
AcDbEntity
  8
Layer 1
 62
   179
420
  2301728
370
     9
100
AcDbVertex
100
AcDb2dVertex
 10
33.48092456451155
 20
-4.023625823096987
 30
0.0
  0
VERTEX
  5
2A3
330
29E
100
AcDbEntity
  8
Layer 1
 62
   179
420
  2301728
370
     9
100
AcDbVertex
100
AcDb2dVertex
 10
33.57106907440349
 20
-4.023625823094966
 30
0.0
  0
SEQEND
  5
2A4
330
29E
100
AcDbEntity
  8
Layer 1
 62
   179
420
  2301728
370
     9
  0
POLYLINE
  5
2A5
330
1F
100
AcDbEntity
  8
Layer 1
 62
   179
420
  2301728
370
     9
100
AcDb2dPolyline
 66
     1
 10
0.0
 20
0.0
 30
0.0
  0
VERTEX
  5
2A6
330
2A5
100
AcDbEntity
  8
Layer 1
 62
   179
420
  2301728
370
     9
100
AcDbVertex
100
AcDb2dVertex
 10
33.90949233055223
 20
-3.735621987675005
 30
0.0
  0
VERTEX
  5
2A7
330
2A5
100
AcDbEntity
  8
Layer 1
 62
   179
420
  2301728
370
     9
100
AcDbVertex
100
AcDb2dVertex
 10
33.99963684044418
 20
-3.735621987679097
 30
0.0
  0
VERTEX
  5
2A8
330
2A5
100
AcDbEntity
  8
Layer 1
 62
   179
420
  2301728
370
     9
100
AcDbVertex
100
AcDb2dVertex
 10
33.90949233055223
 20
-3.559218507112619
 30
0.0
  0
VERTEX
  5
2A9
330
2A5
100
AcDbEntity
  8
Layer 1
 62
   179
420
  2301728
370
     9
100
AcDbVertex
100
AcDb2dVertex
 10
33.81934782066029
 20
-3.735621987677026
 30
0.0
  0
VERTEX
  5
2AA
330
2A5
100
AcDbEntity
  8
Layer 1
 62
   179
420
  2301728
370
     9
100
AcDbVertex
100
AcDb2dVertex
 10
33.90949233055223
 20
-3.735621987675005
 30
0.0
  0
SEQEND
  5
2AB
330
2A5
100
AcDbEntity
  8
Layer 1
 62
   179
420
  2301728
370
     9
  0
POLYLINE
  5
2AC
330
1F
100
AcDbEntity
  8
Layer 1
 62
   179
420
  2301728
370
     9
100
AcDb2dPolyline
 66
     1
 10
0.0
 20
0.0
 30
0.0
  0
VERTEX
  5
2AD
330
2AC
100
AcDbEntity
  8
Layer 1
 62
   179
420
  2301728
370
     9
100
AcDbVertex
100
AcDb2dVertex
 10
33.57106907440349
 20
-4.826141691484054
 30
0.0
  0
VERTEX
  5
2AE
330
2AC
100
AcDbEntity
  8
Layer 1
 62
   179
420
  2301728
370
     9
100
AcDbVertex
100
AcDb2dVertex
 10
33.66121358429543
 20
-4.826141691488147
 30
0.0
  0
VERTEX
  5
2AF
330
2AC
100
AcDbEntity
  8
Layer 1
 62
   179
420
  2301728
370
     9
100
AcDbVertex
100
AcDb2dVertex
 10
33.57106907440349
 20
-4.649738210921669
 30
0.0
  0
VERTEX
  5
2B0
330
2AC
100
AcDbEntity
  8
Layer 1
 62
   179
420
  2301728
370
     9
100
AcDbVertex
100
AcDb2dVertex
 10
33.48092456451155
 20
-4.826141691486074
 30
0.0
  0
VERTEX
  5
2B1
330
2AC
100
AcDbEntity
  8
Layer 1
 62
   179
420
  2301728
370
     9
100
AcDbVertex
100
AcDb2dVertex
 10
33.57106907440349
 20
-4.826141691484054
 30
0.0
  0
SEQEND
  5
2B2
330
2AC
100
AcDbEntity
  8
Layer 1
 62
   179
420
  2301728
370
     9
  0
POLYLINE
  5
2B3
330
1F
100
AcDbEntity
  8
Layer 1
 62
   179
420
  2301728
370
     9
100
AcDb2dPolyline
 66
     1
 10
0.0
 20
0.0
 30
0.0
  0
VERTEX
  5
2B4
330
2B3
100
AcDbEntity
  8
Layer 1
 62
   179
420
  2301728
370
     9
100
AcDbVertex
100
AcDb2dVertex
 10
33.02314300816834
 20
-4.614082229543
 30
0.0
  0
VERTEX
  5
2B5
330
2B3
100
AcDbEntity
  8
Layer 1
 62
   179
420
  2301728
370
     9
100
AcDbVertex
100
AcDb2dVertex
 10
33.11328751806028
 20
-4.614082229547092
 30
0.0
  0
VERTEX
  5
2B6
330
2B3
100
AcDbEntity
  8
Layer 1
 62
   179
420
  2301728
370
     9
100
AcDbVertex
100
AcDb2dVertex
 10
33.02314300816834
 20
-4.437678748980614
 30
0.0
  0
VERTEX
  5
2B7
330
2B3
100
AcDbEntity
  8
Layer 1
 62
   179
420
  2301728
370
     9
100
AcDbVertex
100
AcDb2dVertex
 10
32.9329984982764
 20
-4.61408222954502
 30
0.0
  0
VERTEX
  5
2B8
330
2B3
100
AcDbEntity
  8
Layer 1
 62
   179
420
  2301728
370
     9
100
AcDbVertex
100
AcDb2dVertex
 10
33.02314300816834
 20
-4.614082229543
 30
0.0
  0
SEQEND
  5
2B9
330
2B3
100
AcDbEntity
  8
Layer 1
 62
   179
420
  2301728
370
     9
  0
POLYLINE
  5
2BA
330
1F
100
AcDbEntity
  8
Layer 1
 62
   179
420
  2301728
370
     9
100
AcDb2dPolyline
 66
     1
 10
0.0
 20
0.0
 30
0.0
  0
VERTEX
  5
2BB
330
2BA
100
AcDbEntity
  8
Layer 1
 62
   179
420
  2301728
370
     9
100
AcDbVertex
100
AcDb2dVertex
 10
33.77148679642015
 20
-4.437678748976522
 30
0.0
  0
VERTEX
  5
2BC
330
2BA
100
AcDbEntity
  8
Layer 1
 62
   179
420
  2301728
370
     9
100
AcDbVertex
100
AcDb2dVertex
 10
33.86163130631209
 20
-4.437678748980614
 30
0.0
  0
VERTEX
  5
2BD
330
2BA
100
AcDbEntity
  8
Layer 1
 62
   179
420
  2301728
370
     9
100
AcDbVertex
100
AcDb2dVertex
 10
33.77148679642015
 20
-4.261275268414137
 30
0.0
  0
VERTEX
  5
2BE
330
2BA
100
AcDbEntity
  8
Layer 1
 62
   179
420
  2301728
370
     9
100
AcDbVertex
100
AcDb2dVertex
 10
33.68134228652821
 20
-4.437678748978543
 30
0.0
  0
VERTEX
  5
2BF
330
2BA
100
AcDbEntity
  8
Layer 1
 62
   179
420
  2301728
370
     9
100
AcDbVertex
100
AcDb2dVertex
 10
33.77148679642015
 20
-4.437678748976522
 30
0.0
  0
SEQEND
  5
2C0
330
2BA
100
AcDbEntity
  8
Layer 1
 62
   179
420
  2301728
370
     9
  0
POLYLINE
  5
2C1
330
1F
100
AcDbEntity
  8
Layer 1
 62
   179
420
  2301728
370
     9
100
AcDb2dPolyline
 66
     1
 10
0.0
 20
0.0
 30
0.0
  0
VERTEX
  5
2C2
330
2C1
100
AcDbEntity
  8
Layer 1
 62
   179
420
  2301728
370
     9
100
AcDbVertex
100
AcDb2dVertex
 10
33.39616029363975
 20
-5.240194617365609
 30
0.0
  0
VERTEX
  5
2C3
330
2C1
100
AcDbEntity
  8
Layer 1
 62
   179
420
  2301728
370
     9
100
AcDbVertex
100
AcDb2dVertex
 10
33.48630480353169
 20
-5.240194617369702
 30
0.0
  0
VERTEX
  5
2C4
330
2C1
100
AcDbEntity
  8
Layer 1
 62
   179
420
  2301728
370
     9
100
AcDbVertex
100
AcDb2dVertex
 10
33.39616029363975
 20
-5.063791136803224
 30
0.0
  0
VERTEX
  5
2C5
330
2C1
100
AcDbEntity
  8
Layer 1
 62
   179
420
  2301728
370
     9
100
AcDbVertex
100
AcDb2dVertex
 10
33.3060157837478
 20
-5.24019461736763
 30
0.0
  0
VERTEX
  5
2C6
330
2C1
100
AcDbEntity
  8
Layer 1
 62
   179
420
  2301728
370
     9
100
AcDbVertex
100
AcDb2dVertex
 10
33.39616029363975
 20
-5.240194617365609
 30
0.0
  0
SEQEND
  5
2C7
330
2C1
100
AcDbEntity
  8
Layer 1
 62
   179
420
  2301728
370
     9
  0
POLYLINE
  5
2C8
330
1F
100
AcDbEntity
  8
Layer 1
 62
   179
420
  2301728
370
     9
100
AcDb2dPolyline
 66
     1
 10
0.0
 20
0.0
 30
0.0
  0
VERTEX
  5
2C9
330
2C8
100
AcDbEntity
  8
Layer 1
 62
   179
420
  2301728
370
     9
100
AcDbVertex
100
AcDb2dVertex
 10
32.64550728807904
 20
-5.240194617365609
 30
0.0
  0
VERTEX
  5
2CA
330
2C8
100
AcDbEntity
  8
Layer 1
 62
   179
420
  2301728
370
     9
100
AcDbVertex
100
AcDb2dVertex
 10
32.73565179797098
 20
-5.240194617369702
 30
0.0
  0
VERTEX
  5
2CB
330
2C8
100
AcDbEntity
  8
Layer 1
 62
   179
420
  2301728
370
     9
100
AcDbVertex
100
AcDb2dVertex
 10
32.64550728807904
 20
-5.063791136803224
 30
0.0
  0
VERTEX
  5
2CC
330
2C8
100
AcDbEntity
  8
Layer 1
 62
   179
420
  2301728
370
     9
100
AcDbVertex
100
AcDb2dVertex
 10
32.55536277818697
 20
-5.24019461736763
 30
0.0
  0
VERTEX
  5
2CD
330
2C8
100
AcDbEntity
  8
Layer 1
 62
   179
420
  2301728
370
     9
100
AcDbVertex
100
AcDb2dVertex
 10
32.64550728807904
 20
-5.240194617365609
 30
0.0
  0
SEQEND
  5
2CE
330
2C8
100
AcDbEntity
  8
Layer 1
 62
   179
420
  2301728
370
     9
  0
POLYLINE
  5
2CF
330
1F
100
AcDbEntity
  8
Layer 1
 62
   179
420
  2301728
370
     9
100
AcDb2dPolyline
 66
     1
 10
0.0
 20
0.0
 30
0.0
  0
VERTEX
  5
2D0
330
2CF
100
AcDbEntity
  8
Layer 1
 62
   179
420
  2301728
370
     9
100
AcDbVertex
100
AcDb2dVertex
 10
33.77148679642015
 20
-5.240194617365609
 30
0.0
  0
VERTEX
  5
2D1
330
2CF
100
AcDbEntity
  8
Layer 1
 62
   179
420
  2301728
370
     9
100
AcDbVertex
100
AcDb2dVertex
 10
33.86163130631209
 20
-5.240194617369702
 30
0.0
  0
VERTEX
  5
2D2
330
2CF
100
AcDbEntity
  8
Layer 1
 62
   179
420
  2301728
370
     9
100
AcDbVertex
100
AcDb2dVertex
 10
33.77148679642015
 20
-5.063791136803224
 30
0.0
  0
VERTEX
  5
2D3
330
2CF
100
AcDbEntity
  8
Layer 1
 62
   179
420
  2301728
370
     9
100
AcDbVertex
100
AcDb2dVertex
 10
33.68134228652821
 20
-5.24019461736763
 30
0.0
  0
VERTEX
  5
2D4
330
2CF
100
AcDbEntity
  8
Layer 1
 62
   179
420
  2301728
370
     9
100
AcDbVertex
100
AcDb2dVertex
 10
33.77148679642015
 20
-5.240194617365609
 30
0.0
  0
SEQEND
  5
2D5
330
2CF
100
AcDbEntity
  8
Layer 1
 62
   179
420
  2301728
370
     9
  0
POLYLINE
  5
2D6
330
1F
100
AcDbEntity
  8
Layer 1
 62
   179
420
  2301728
370
     9
100
AcDb2dPolyline
 66
     1
 10
0.0
 20
0.0
 30
0.0
  0
VERTEX
  5
2D7
330
2D6
100
AcDbEntity
  8
Layer 1
 62
   179
420
  2301728
370
     9
100
AcDbVertex
100
AcDb2dVertex
 10
28.21724333805966
 20
-5.981457584192943
 30
0.0
  0
VERTEX
  5
2D8
330
2D6
100
AcDbEntity
  8
Layer 1
 62
   179
420
  2301728
370
     9
100
AcDbVertex
100
AcDb2dVertex
 10
28.37709185160578
 20
-5.897420247395833
 30
0.0
  0
VERTEX
  5
2D9
330
2D6
100
AcDbEntity
  8
Layer 1
 62
   179
420
  2301728
370
     9
100
AcDbVertex
100
AcDb2dVertex
 10
28.34656350204396
 20
-6.075414183056156
 30
0.0
  0
VERTEX
  5
2DA
330
2D6
100
AcDbEntity
  8
Layer 1
 62
   179
420
  2301728
370
     9
100
AcDbVertex
100
AcDb2dVertex
 10
28.47588366602827
 20
-6.201470188251859
 30
0.0
  0
VERTEX
  5
2DB
330
2D6
100
AcDbEntity
  8
Layer 1
 62
   179
420
  2301728
370
     9
100
AcDbVertex
100
AcDb2dVertex
 10
28.29716759483272
 20
-6.227439153484182
 30
0.0
  0
VERTEX
  5
2DC
330
2D6
100
AcDbEntity
  8
Layer 1
 62
   179
420
  2301728
370
     9
100
AcDbVertex
100
AcDb2dVertex
 10
28.21724333805966
 20
-6.389383385978286
 30
0.0
  0
VERTEX
  5
2DD
330
2D6
100
AcDbEntity
  8
Layer 1
 62
   179
420
  2301728
370
     9
100
AcDbVertex
100
AcDb2dVertex
 10
28.13731908128673
 20
-6.227439153484182
 30
0.0
  0
VERTEX
  5
2DE
330
2D6
100
AcDbEntity
  8
Layer 1
 62
   179
420
  2301728
370
     9
100
AcDbVertex
100
AcDb2dVertex
 10
27.95860301009118
 20
-6.201470188251859
 30
0.0
  0
VERTEX
  5
2DF
330
2D6
100
AcDbEntity
  8
Layer 1
 62
   179
420
  2301728
370
     9
100
AcDbVertex
100
AcDb2dVertex
 10
28.08792317407536
 20
-6.075414183056156
 30
0.0
  0
VERTEX
  5
2E0
330
2D6
100
AcDbEntity
  8
Layer 1
 62
   179
420
  2301728
370
     9
100
AcDbVertex
100
AcDb2dVertex
 10
28.05739482451369
 20
-5.897420247395833
 30
0.0
  0
VERTEX
  5
2E1
330
2D6
100
AcDbEntity
  8
Layer 1
 62
   179
420
  2301728
370
     9
100
AcDbVertex
100
AcDb2dVertex
 10
28.21724333805966
 20
-5.981457584192943
 30
0.0
  0
SEQEND
  5
2E2
330
2D6
100
AcDbEntity
  8
Layer 1
 62
   179
420
  2301728
370
     9
  0
POLYLINE
  5
2E3
330
1F
100
AcDbEntity
  8
Layer 1
 62
   179
420
  2301728
370
     9
100
AcDb2dPolyline
 66
     1
 10
0.0
 20
0.0
 30
0.0
  0
VERTEX
  5
2E4
330
2E3
100
AcDbEntity
  8
Layer 1
 62
   179
420
  2301728
370
     9
100
AcDbVertex
100
AcDb2dVertex
 10
33.16772460938091
 20
-1.777169720424328
 30
0.0
  0
VERTEX
  5
2E5
330
2E3
100
AcDbEntity
  8
Layer 1
 62
   179
420
  2301728
370
     9
100
AcDbVertex
100
AcDb2dVertex
 10
33.51103926786661
 20
-1.596678523211797
 30
0.0
  0
VERTEX
  5
2E6
330
2E3
100
AcDbEntity
  8
Layer 1
 62
   179
420
  2301728
370
     9
100
AcDbVertex
100
AcDb2dVertex
 10
33.44547200251395
 20
-1.978965013578115
 30
0.0
  0
VERTEX
  5
2E7
330
2E3
100
AcDbEntity
  8
Layer 1
 62
   179
420
  2301728
370
     9
100
AcDbVertex
100
AcDb2dVertex
 10
33.72321939564701
 20
-2.249701809396962
 30
0.0
  0
VERTEX
  5
2E8
330
2E3
100
AcDbEntity
  8
Layer 1
 62
   179
420
  2301728
370
     9
100
AcDbVertex
100
AcDb2dVertex
 10
33.33938193862382
 20
-2.305476656670736
 30
0.0
  0
VERTEX
  5
2E9
330
2E3
100
AcDbEntity
  8
Layer 1
 62
   179
420
  2301728
370
     9
100
AcDbVertex
100
AcDb2dVertex
 10
33.16772460938091
 20
-2.653292395704587
 30
0.0
  0
VERTEX
  5
2EA
330
2E3
100
AcDbEntity
  8
Layer 1
 62
   179
420
  2301728
370
     9
100
AcDbVertex
100
AcDb2dVertex
 10
32.996067280138
 20
-2.305476656670736
 30
0.0
  0
VERTEX
  5
2EB
330
2E3
100
AcDbEntity
  8
Layer 1
 62
   179
420
  2301728
370
     9
100
AcDbVertex
100
AcDb2dVertex
 10
32.6122298231148
 20
-2.249701809396962
 30
0.0
  0
VERTEX
  5
2EC
330
2E3
100
AcDbEntity
  8
Layer 1
 62
   179
420
  2301728
370
     9
100
AcDbVertex
100
AcDb2dVertex
 10
32.88997721624771
 20
-1.978965013578115
 30
0.0
  0
VERTEX
  5
2ED
330
2E3
100
AcDbEntity
  8
Layer 1
 62
   179
420
  2301728
370
     9
100
AcDbVertex
100
AcDb2dVertex
 10
32.82440995089506
 20
-1.596678523211797
 30
0.0
  0
VERTEX
  5
2EE
330
2E3
100
AcDbEntity
  8
Layer 1
 62
   179
420
  2301728
370
     9
100
AcDbVertex
100
AcDb2dVertex
 10
33.16772460938091
 20
-1.777169720424328
 30
0.0
  0
SEQEND
  5
2EF
330
2E3
100
AcDbEntity
  8
Layer 1
 62
   179
420
  2301728
370
     9
  0
POLYLINE
  5
2F0
330
1F
100
AcDbEntity
  8
Layer 1
 62
   179
420
  2301728
370
     9
100
AcDb2dPolyline
 66
     1
 10
0.0
 20
0.0
 30
0.0
  0
VERTEX
  5
2F1
330
2F0
100
AcDbEntity
  8
Layer 1
 62
   179
420
  2301728
370
     9
100
AcDbVertex
100
AcDb2dVertex
 10
29.03814960268591
 20
-7.133036861417546
 30
0.0
  0
VERTEX
  5
2F2
330
2F0
100
AcDbEntity
  8
Layer 1
 62
   179
420
  2301728
370
     9
100
AcDbVertex
100
AcDb2dVertex
 10
29.19799811623188
 20
-7.048999524620436
 30
0.0
  0
VERTEX
  5
2F3
330
2F0
100
AcDbEntity
  8
Layer 1
 62
   179
420
  2301728
370
     9
100
AcDbVertex
100
AcDb2dVertex
 10
29.16746976667021
 20
-7.22699346028076
 30
0.0
  0
VERTEX
  5
2F4
330
2F0
100
AcDbEntity
  8
Layer 1
 62
   179
420
  2301728
370
     9
100
AcDbVertex
100
AcDb2dVertex
 10
29.29678993065439
 20
-7.353049465476462
 30
0.0
  0
VERTEX
  5
2F5
330
2F0
100
AcDbEntity
  8
Layer 1
 62
   179
420
  2301728
370
     9
100
AcDbVertex
100
AcDb2dVertex
 10
29.11807385945882
 20
-7.379018430708785
 30
0.0
  0
VERTEX
  5
2F6
330
2F0
100
AcDbEntity
  8
Layer 1
 62
   179
420
  2301728
370
     9
100
AcDbVertex
100
AcDb2dVertex
 10
29.03814960268591
 20
-7.54096266320289
 30
0.0
  0
VERTEX
  5
2F7
330
2F0
100
AcDbEntity
  8
Layer 1
 62
   179
420
  2301728
370
     9
100
AcDbVertex
100
AcDb2dVertex
 10
28.95822534591285
 20
-7.379018430708785
 30
0.0
  0
VERTEX
  5
2F8
330
2F0
100
AcDbEntity
  8
Layer 1
 62
   179
420
  2301728
370
     9
100
AcDbVertex
100
AcDb2dVertex
 10
28.77950927471731
 20
-7.353049465476462
 30
0.0
  0
VERTEX
  5
2F9
330
2F0
100
AcDbEntity
  8
Layer 1
 62
   179
420
  2301728
370
     9
100
AcDbVertex
100
AcDb2dVertex
 10
28.90882943870161
 20
-7.22699346028076
 30
0.0
  0
VERTEX
  5
2FA
330
2F0
100
AcDbEntity
  8
Layer 1
 62
   179
420
  2301728
370
     9
100
AcDbVertex
100
AcDb2dVertex
 10
28.87830108913994
 20
-7.048999524620436
 30
0.0
  0
VERTEX
  5
2FB
330
2F0
100
AcDbEntity
  8
Layer 1
 62
   179
420
  2301728
370
     9
100
AcDbVertex
100
AcDb2dVertex
 10
29.03814960268591
 20
-7.133036861417546
 30
0.0
  0
SEQEND
  5
2FC
330
2F0
100
AcDbEntity
  8
Layer 1
 62
   179
420
  2301728
370
     9
  0
POLYLINE
  5
2FD
330
1F
100
AcDbEntity
  8
Layer 1
 62
   179
420
  2301728
370
     9
100
AcDb2dPolyline
 66
     1
 10
0.0
 20
0.0
 30
0.0
  0
VERTEX
  5
2FE
330
2FD
100
AcDbEntity
  8
Layer 1
 62
   179
420
  2301728
370
     9
100
AcDbVertex
100
AcDb2dVertex
 10
29.29678993065439
 20
-6.437532776203246
 30
0.0
  0
VERTEX
  5
2FF
330
2FD
100
AcDbEntity
  8
Layer 1
 62
   179
420
  2301728
370
     9
100
AcDbVertex
100
AcDb2dVertex
 10
29.45663844420048
 20
-6.353495439406136
 30
0.0
  0
VERTEX
  5
300
330
2FD
100
AcDbEntity
  8
Layer 1
 62
   179
420
  2301728
370
     9
100
AcDbVertex
100
AcDb2dVertex
 10
29.42611009463869
 20
-6.531489375066459
 30
0.0
  0
VERTEX
  5
301
330
2FD
100
AcDbEntity
  8
Layer 1
 62
   179
420
  2301728
370
     9
100
AcDbVertex
100
AcDb2dVertex
 10
29.55543025862299
 20
-6.657545380262162
 30
0.0
  0
VERTEX
  5
302
330
2FD
100
AcDbEntity
  8
Layer 1
 62
   179
420
  2301728
370
     9
100
AcDbVertex
100
AcDb2dVertex
 10
29.37671418742742
 20
-6.683514345494485
 30
0.0
  0
VERTEX
  5
303
330
2FD
100
AcDbEntity
  8
Layer 1
 62
   179
420
  2301728
370
     9
100
AcDbVertex
100
AcDb2dVertex
 10
29.29678993065439
 20
-6.845458577988589
 30
0.0
  0
VERTEX
  5
304
330
2FD
100
AcDbEntity
  8
Layer 1
 62
   179
420
  2301728
370
     9
100
AcDbVertex
100
AcDb2dVertex
 10
29.21686567388145
 20
-6.683514345494485
 30
0.0
  0
VERTEX
  5
305
330
2FD
100
AcDbEntity
  8
Layer 1
 62
   179
420
  2301728
370
     9
100
AcDbVertex
100
AcDb2dVertex
 10
29.03814960268591
 20
-6.657545380262162
 30
0.0
  0
VERTEX
  5
306
330
2FD
100
AcDbEntity
  8
Layer 1
 62
   179
420
  2301728
370
     9
100
AcDbVertex
100
AcDb2dVertex
 10
29.16746976667008
 20
-6.531489375066459
 30
0.0
  0
VERTEX
  5
307
330
2FD
100
AcDbEntity
  8
Layer 1
 62
   179
420
  2301728
370
     9
100
AcDbVertex
100
AcDb2dVertex
 10
29.1369414171084
 20
-6.353495439406136
 30
0.0
  0
VERTEX
  5
308
330
2FD
100
AcDbEntity
  8
Layer 1
 62
   179
420
  2301728
370
     9
100
AcDbVertex
100
AcDb2dVertex
 10
29.29678993065439
 20
-6.437532776203246
 30
0.0
  0
SEQEND
  5
309
330
2FD
100
AcDbEntity
  8
Layer 1
 62
   179
420
  2301728
370
     9
  0
POLYLINE
  5
30A
330
1F
100
AcDbEntity
  8
Layer 1
 62
   179
420
  2301728
370
     9
100
AcDb2dPolyline
 66
     1
 10
0.0
 20
0.0
 30
0.0
  0
VERTEX
  5
30B
330
30A
100
AcDbEntity
  8
Layer 1
 62
   179
420
  2301728
370
     9
100
AcDbVertex
100
AcDb2dVertex
 10
28.25388426277328
 20
-7.625
 30
0.0
  0
VERTEX
  5
30C
330
30A
100
AcDbEntity
  8
Layer 1
 62
   179
420
  2301728
370
     9
100
AcDbVertex
100
AcDb2dVertex
 10
28.07516819157771
 20
-7.599031034767677
 30
0.0
  0
VERTEX
  5
30D
330
30A
100
AcDbEntity
  8
Layer 1
 62
   179
420
  2301728
370
     9
100
AcDbVertex
100
AcDb2dVertex
 10
28.20448835556201
 20
-7.472975029571974
 30
0.0
  0
VERTEX
  5
30E
330
30A
100
AcDbEntity
  8
Layer 1
 62
   179
420
  2301728
370
     9
100
AcDbVertex
100
AcDb2dVertex
 10
28.17396000600034
 20
-7.294981093911651
 30
0.0
  0
VERTEX
  5
30F
330
30A
100
AcDbEntity
  8
Layer 1
 62
   179
420
  2301728
370
     9
100
AcDbVertex
100
AcDb2dVertex
 10
28.33380851954631
 20
-7.379018430708761
 30
0.0
  0
VERTEX
  5
310
330
30A
100
AcDbEntity
  8
Layer 1
 62
   179
420
  2301728
370
     9
100
AcDbVertex
100
AcDb2dVertex
 10
28.4936570330923
 20
-7.294981093911651
 30
0.0
  0
VERTEX
  5
311
330
30A
100
AcDbEntity
  8
Layer 1
 62
   179
420
  2301728
370
     9
100
AcDbVertex
100
AcDb2dVertex
 10
28.46312868353064
 20
-7.472975029571974
 30
0.0
  0
VERTEX
  5
312
330
30A
100
AcDbEntity
  8
Layer 1
 62
   179
420
  2301728
370
     9
100
AcDbVertex
100
AcDb2dVertex
 10
28.59244884751479
 20
-7.599031034767677
 30
0.0
  0
VERTEX
  5
313
330
30A
100
AcDbEntity
  8
Layer 1
 62
   179
420
  2301728
370
     9
100
AcDbVertex
100
AcDb2dVertex
 10
28.41373277631924
 20
-7.625
 30
0.0
  0
SEQEND
  5
314
330
30A
100
AcDbEntity
  8
Layer 1
 62
   179
420
  2301728
370
     9
  0
POLYLINE
  5
315
330
1F
100
AcDbEntity
  8
Layer 1
 62
   179
420
  2301728
370
     9
100
AcDb2dPolyline
 66
     1
 10
0.0
 20
0.0
 30
0.0
  0
VERTEX
  5
316
330
315
100
AcDbEntity
  8
Layer 1
 62
   179
420
  2301728
370
     9
100
AcDbVertex
100
AcDb2dVertex
 10
29.79272460938083
 20
-3.25
 30
0.0
  0
VERTEX
  5
317
330
315
100
AcDbEntity
  8
Layer 1
 62
   179
420
  2301728
370
     9
100
AcDbVertex
100
AcDb2dVertex
 10
27.54272460938083
 20
-3.25
 30
0.0
  0
VERTEX
  5
318
330
315
100
AcDbEntity
  8
Layer 1
 62
   179
420
  2301728
370
     9
100
AcDbVertex
100
AcDb2dVertex
 10
27.54272460938083
 20
-1.0
 30
0.0
  0
VERTEX
  5
319
330
315
100
AcDbEntity
  8
Layer 1
 62
   179
420
  2301728
370
     9
100
AcDbVertex
100
AcDb2dVertex
 10
29.79272460938083
 20
-1.0
 30
0.0
  0
VERTEX
  5
31A
330
315
100
AcDbEntity
  8
Layer 1
 62
   179
420
  2301728
370
     9
100
AcDbVertex
100
AcDb2dVertex
 10
29.79272460938083
 20
-3.25
 30
0.0
  0
SEQEND
  5
31B
330
315
100
AcDbEntity
  8
Layer 1
 62
   179
420
  2301728
370
     9
  0
POLYLINE
  5
31C
330
1F
100
AcDbEntity
  8
Layer 1
 62
   179
420
  2301728
370
     9
100
AcDb2dPolyline
 66
     1
 10
0.0
 20
0.0
 30
0.0
  0
VERTEX
  5
31D
330
31C
100
AcDbEntity
  8
Layer 1
 62
   179
420
  2301728
370
     9
100
AcDbVertex
100
AcDb2dVertex
 10
32.04272460938083
 20
-3.25
 30
0.0
  0
VERTEX
  5
31E
330
31C
100
AcDbEntity
  8
Layer 1
 62
   179
420
  2301728
370
     9
100
AcDbVertex
100
AcDb2dVertex
 10
29.79272460938083
 20
-3.25
 30
0.0
  0
VERTEX
  5
31F
330
31C
100
AcDbEntity
  8
Layer 1
 62
   179
420
  2301728
370
     9
100
AcDbVertex
100
AcDb2dVertex
 10
29.79272460938083
 20
-1.0
 30
0.0
  0
VERTEX
  5
320
330
31C
100
AcDbEntity
  8
Layer 1
 62
   179
420
  2301728
370
     9
100
AcDbVertex
100
AcDb2dVertex
 10
32.04272460938083
 20
-1.0
 30
0.0
  0
VERTEX
  5
321
330
31C
100
AcDbEntity
  8
Layer 1
 62
   179
420
  2301728
370
     9
100
AcDbVertex
100
AcDb2dVertex
 10
32.04272460938083
 20
-3.25
 30
0.0
  0
SEQEND
  5
322
330
31C
100
AcDbEntity
  8
Layer 1
 62
   179
420
  2301728
370
     9
  0
POLYLINE
  5
323
330
1F
100
AcDbEntity
  8
Layer 1
 62
   179
420
  2301728
370
     9
100
AcDb2dPolyline
 66
     1
 10
0.0
 20
0.0
 30
0.0
  0
VERTEX
  5
324
330
323
100
AcDbEntity
  8
Layer 1
 62
   179
420
  2301728
370
     9
100
AcDbVertex
100
AcDb2dVertex
 10
34.29272460938083
 20
-3.25
 30
0.0
  0
VERTEX
  5
325
330
323
100
AcDbEntity
  8
Layer 1
 62
   179
420
  2301728
370
     9
100
AcDbVertex
100
AcDb2dVertex
 10
32.04272460938083
 20
-3.25
 30
0.0
  0
VERTEX
  5
326
330
323
100
AcDbEntity
  8
Layer 1
 62
   179
420
  2301728
370
     9
100
AcDbVertex
100
AcDb2dVertex
 10
32.04272460938083
 20
-1.0
 30
0.0
  0
VERTEX
  5
327
330
323
100
AcDbEntity
  8
Layer 1
 62
   179
420
  2301728
370
     9
100
AcDbVertex
100
AcDb2dVertex
 10
34.29272460938083
 20
-1.0
 30
0.0
  0
VERTEX
  5
328
330
323
100
AcDbEntity
  8
Layer 1
 62
   179
420
  2301728
370
     9
100
AcDbVertex
100
AcDb2dVertex
 10
34.29272460938083
 20
-3.25
 30
0.0
  0
SEQEND
  5
329
330
323
100
AcDbEntity
  8
Layer 1
 62
   179
420
  2301728
370
     9
  0
POLYLINE
  5
32A
330
1F
100
AcDbEntity
  8
Layer 1
 62
   179
420
  2301728
370
     9
100
AcDb2dPolyline
 66
     1
 10
0.0
 20
0.0
 30
0.0
  0
VERTEX
  5
32B
330
32A
100
AcDbEntity
  8
Layer 1
 62
   179
420
  2301728
370
     9
100
AcDbVertex
100
AcDb2dVertex
 10
29.79272460938083
 20
-5.5
 30
0.0
  0
VERTEX
  5
32C
330
32A
100
AcDbEntity
  8
Layer 1
 62
   179
420
  2301728
370
     9
100
AcDbVertex
100
AcDb2dVertex
 10
27.54272460938083
 20
-5.5
 30
0.0
  0
VERTEX
  5
32D
330
32A
100
AcDbEntity
  8
Layer 1
 62
   179
420
  2301728
370
     9
100
AcDbVertex
100
AcDb2dVertex
 10
27.54272460938083
 20
-3.25
 30
0.0
  0
VERTEX
  5
32E
330
32A
100
AcDbEntity
  8
Layer 1
 62
   179
420
  2301728
370
     9
100
AcDbVertex
100
AcDb2dVertex
 10
29.79272460938083
 20
-3.25
 30
0.0
  0
VERTEX
  5
32F
330
32A
100
AcDbEntity
  8
Layer 1
 62
   179
420
  2301728
370
     9
100
AcDbVertex
100
AcDb2dVertex
 10
29.79272460938083
 20
-5.5
 30
0.0
  0
SEQEND
  5
330
330
32A
100
AcDbEntity
  8
Layer 1
 62
   179
420
  2301728
370
     9
  0
POLYLINE
  5
331
330
1F
100
AcDbEntity
  8
Layer 1
 62
   179
420
  2301728
370
     9
100
AcDb2dPolyline
 66
     1
 10
0.0
 20
0.0
 30
0.0
  0
VERTEX
  5
332
330
331
100
AcDbEntity
  8
Layer 1
 62
   179
420
  2301728
370
     9
100
AcDbVertex
100
AcDb2dVertex
 10
32.04272460938083
 20
-5.5
 30
0.0
  0
VERTEX
  5
333
330
331
100
AcDbEntity
  8
Layer 1
 62
   179
420
  2301728
370
     9
100
AcDbVertex
100
AcDb2dVertex
 10
29.79272460938083
 20
-5.5
 30
0.0
  0
VERTEX
  5
334
330
331
100
AcDbEntity
  8
Layer 1
 62
   179
420
  2301728
370
     9
100
AcDbVertex
100
AcDb2dVertex
 10
29.79272460938083
 20
-3.25
 30
0.0
  0
VERTEX
  5
335
330
331
100
AcDbEntity
  8
Layer 1
 62
   179
420
  2301728
370
     9
100
AcDbVertex
100
AcDb2dVertex
 10
32.04272460938083
 20
-3.25
 30
0.0
  0
VERTEX
  5
336
330
331
100
AcDbEntity
  8
Layer 1
 62
   179
420
  2301728
370
     9
100
AcDbVertex
100
AcDb2dVertex
 10
32.04272460938083
 20
-5.5
 30
0.0
  0
SEQEND
  5
337
330
331
100
AcDbEntity
  8
Layer 1
 62
   179
420
  2301728
370
     9
  0
POLYLINE
  5
338
330
1F
100
AcDbEntity
  8
Layer 1
 62
   179
420
  2301728
370
     9
100
AcDb2dPolyline
 66
     1
 10
0.0
 20
0.0
 30
0.0
  0
VERTEX
  5
339
330
338
100
AcDbEntity
  8
Layer 1
 62
   179
420
  2301728
370
     9
100
AcDbVertex
100
AcDb2dVertex
 10
34.29272460938083
 20
-5.5
 30
0.0
  0
VERTEX
  5
33A
330
338
100
AcDbEntity
  8
Layer 1
 62
   179
420
  2301728
370
     9
100
AcDbVertex
100
AcDb2dVertex
 10
32.04272460938083
 20
-5.5
 30
0.0
  0
VERTEX
  5
33B
330
338
100
AcDbEntity
  8
Layer 1
 62
   179
420
  2301728
370
     9
100
AcDbVertex
100
AcDb2dVertex
 10
32.04272460938083
 20
-3.25
 30
0.0
  0
VERTEX
  5
33C
330
338
100
AcDbEntity
  8
Layer 1
 62
   179
420
  2301728
370
     9
100
AcDbVertex
100
AcDb2dVertex
 10
34.29272460938083
 20
-3.25
 30
0.0
  0
VERTEX
  5
33D
330
338
100
AcDbEntity
  8
Layer 1
 62
   179
420
  2301728
370
     9
100
AcDbVertex
100
AcDb2dVertex
 10
34.29272460938083
 20
-5.5
 30
0.0
  0
SEQEND
  5
33E
330
338
100
AcDbEntity
  8
Layer 1
 62
   179
420
  2301728
370
     9
  0
POLYLINE
  5
33F
330
1F
100
AcDbEntity
  8
Layer 1
 62
   179
420
  2301728
370
     9
100
AcDb2dPolyline
 66
     1
 10
0.0
 20
0.0
 30
0.0
  0
VERTEX
  5
340
330
33F
100
AcDbEntity
  8
Layer 1
 62
   179
420
  2301728
370
     9
100
AcDbVertex
100
AcDb2dVertex
 10
29.79272460938083
 20
-7.75
 30
0.0
  0
VERTEX
  5
341
330
33F
100
AcDbEntity
  8
Layer 1
 62
   179
420
  2301728
370
     9
100
AcDbVertex
100
AcDb2dVertex
 10
27.54272460938083
 20
-7.75
 30
0.0
  0
VERTEX
  5
342
330
33F
100
AcDbEntity
  8
Layer 1
 62
   179
420
  2301728
370
     9
100
AcDbVertex
100
AcDb2dVertex
 10
27.54272460938083
 20
-5.5
 30
0.0
  0
VERTEX
  5
343
330
33F
100
AcDbEntity
  8
Layer 1
 62
   179
420
  2301728
370
     9
100
AcDbVertex
100
AcDb2dVertex
 10
29.79272460938083
 20
-5.5
 30
0.0
  0
VERTEX
  5
344
330
33F
100
AcDbEntity
  8
Layer 1
 62
   179
420
  2301728
370
     9
100
AcDbVertex
100
AcDb2dVertex
 10
29.79272460938083
 20
-7.75
 30
0.0
  0
SEQEND
  5
345
330
33F
100
AcDbEntity
  8
Layer 1
 62
   179
420
  2301728
370
     9
  0
POLYLINE
  5
346
330
1F
100
AcDbEntity
  8
Layer 1
 62
   179
420
  2301728
370
     9
100
AcDb2dPolyline
 66
     1
 10
0.0
 20
0.0
 30
0.0
  0
VERTEX
  5
347
330
346
100
AcDbEntity
  8
Layer 1
 62
   179
420
  2301728
370
     9
100
AcDbVertex
100
AcDb2dVertex
 10
32.04272460938083
 20
-7.75
 30
0.0
  0
VERTEX
  5
348
330
346
100
AcDbEntity
  8
Layer 1
 62
   179
420
  2301728
370
     9
100
AcDbVertex
100
AcDb2dVertex
 10
29.79272460938083
 20
-7.75
 30
0.0
  0
VERTEX
  5
349
330
346
100
AcDbEntity
  8
Layer 1
 62
   179
420
  2301728
370
     9
100
AcDbVertex
100
AcDb2dVertex
 10
29.79272460938083
 20
-5.5
 30
0.0
  0
VERTEX
  5
34A
330
346
100
AcDbEntity
  8
Layer 1
 62
   179
420
  2301728
370
     9
100
AcDbVertex
100
AcDb2dVertex
 10
32.04272460938083
 20
-5.5
 30
0.0
  0
VERTEX
  5
34B
330
346
100
AcDbEntity
  8
Layer 1
 62
   179
420
  2301728
370
     9
100
AcDbVertex
100
AcDb2dVertex
 10
32.04272460938083
 20
-7.75
 30
0.0
  0
SEQEND
  5
34C
330
346
100
AcDbEntity
  8
Layer 1
 62
   179
420
  2301728
370
     9
  0
POLYLINE
  5
34D
330
1F
100
AcDbEntity
  8
Layer 1
 62
   179
420
  2301728
370
     9
100
AcDb2dPolyline
 66
     1
 10
0.0
 20
0.0
 30
0.0
  0
VERTEX
  5
34E
330
34D
100
AcDbEntity
  8
Layer 1
 62
   179
420
  2301728
370
     9
100
AcDbVertex
100
AcDb2dVertex
 10
34.29272460938083
 20
-7.75
 30
0.0
  0
VERTEX
  5
34F
330
34D
100
AcDbEntity
  8
Layer 1
 62
   179
420
  2301728
370
     9
100
AcDbVertex
100
AcDb2dVertex
 10
32.04272460938083
 20
-7.75
 30
0.0
  0
VERTEX
  5
350
330
34D
100
AcDbEntity
  8
Layer 1
 62
   179
420
  2301728
370
     9
100
AcDbVertex
100
AcDb2dVertex
 10
32.04272460938083
 20
-5.5
 30
0.0
  0
VERTEX
  5
351
330
34D
100
AcDbEntity
  8
Layer 1
 62
   179
420
  2301728
370
     9
100
AcDbVertex
100
AcDb2dVertex
 10
34.29272460938083
 20
-5.5
 30
0.0
  0
VERTEX
  5
352
330
34D
100
AcDbEntity
  8
Layer 1
 62
   179
420
  2301728
370
     9
100
AcDbVertex
100
AcDb2dVertex
 10
34.29272460938083
 20
-7.75
 30
0.0
  0
SEQEND
  5
353
330
34D
100
AcDbEntity
  8
Layer 1
 62
   179
420
  2301728
370
     9
  0
POLYLINE
  5
354
330
1F
100
AcDbEntity
  8
Layer 1
 62
   179
420
  2301728
370
     9
100
AcDb2dPolyline
 66
     1
 10
0.0
 20
0.0
 30
0.0
  0
VERTEX
  5
355
330
354
100
AcDbEntity
  8
Layer 1
 62
   179
420
  2301728
370
     9
100
AcDbVertex
100
AcDb2dVertex
 10
29.79272460938083
 20
-10.0
 30
0.0
  0
VERTEX
  5
356
330
354
100
AcDbEntity
  8
Layer 1
 62
   179
420
  2301728
370
     9
100
AcDbVertex
100
AcDb2dVertex
 10
27.54272460938083
 20
-10.0
 30
0.0
  0
VERTEX
  5
357
330
354
100
AcDbEntity
  8
Layer 1
 62
   179
420
  2301728
370
     9
100
AcDbVertex
100
AcDb2dVertex
 10
27.54272460938083
 20
-7.75
 30
0.0
  0
VERTEX
  5
358
330
354
100
AcDbEntity
  8
Layer 1
 62
   179
420
  2301728
370
     9
100
AcDbVertex
100
AcDb2dVertex
 10
29.79272460938083
 20
-7.75
 30
0.0
  0
VERTEX
  5
359
330
354
100
AcDbEntity
  8
Layer 1
 62
   179
420
  2301728
370
     9
100
AcDbVertex
100
AcDb2dVertex
 10
29.79272460938083
 20
-10.0
 30
0.0
  0
SEQEND
  5
35A
330
354
100
AcDbEntity
  8
Layer 1
 62
   179
420
  2301728
370
     9
  0
POLYLINE
  5
35B
330
1F
100
AcDbEntity
  8
Layer 1
 62
   179
420
  2301728
370
     9
100
AcDb2dPolyline
 66
     1
 10
0.0
 20
0.0
 30
0.0
  0
VERTEX
  5
35C
330
35B
100
AcDbEntity
  8
Layer 1
 62
   179
420
  2301728
370
     9
100
AcDbVertex
100
AcDb2dVertex
 10
20.76504913720542
 20
-3.25
 30
0.0
  0
VERTEX
  5
35D
330
35B
100
AcDbEntity
  8
Layer 1
 62
   179
420
  2301728
370
     9
100
AcDbVertex
100
AcDb2dVertex
 10
18.51504913720542
 20
-3.25
 30
0.0
  0
VERTEX
  5
35E
330
35B
100
AcDbEntity
  8
Layer 1
 62
   179
420
  2301728
370
     9
100
AcDbVertex
100
AcDb2dVertex
 10
18.51504913720542
 20
-1.0
 30
0.0
  0
VERTEX
  5
35F
330
35B
100
AcDbEntity
  8
Layer 1
 62
   179
420
  2301728
370
     9
100
AcDbVertex
100
AcDb2dVertex
 10
20.76504913720542
 20
-1.0
 30
0.0
  0
VERTEX
  5
360
330
35B
100
AcDbEntity
  8
Layer 1
 62
   179
420
  2301728
370
     9
100
AcDbVertex
100
AcDb2dVertex
 10
20.76504913720542
 20
-3.25
 30
0.0
  0
SEQEND
  5
361
330
35B
100
AcDbEntity
  8
Layer 1
 62
   179
420
  2301728
370
     9
  0
POLYLINE
  5
362
330
1F
100
AcDbEntity
  8
Layer 1
 62
   179
420
  2301728
370
     9
100
AcDb2dPolyline
 66
     1
 10
0.0
 20
0.0
 30
0.0
  0
VERTEX
  5
363
330
362
100
AcDbEntity
  8
Layer 1
 62
   179
420
  2301728
370
     9
100
AcDbVertex
100
AcDb2dVertex
 10
20.76504913720542
 20
-5.5
 30
0.0
  0
VERTEX
  5
364
330
362
100
AcDbEntity
  8
Layer 1
 62
   179
420
  2301728
370
     9
100
AcDbVertex
100
AcDb2dVertex
 10
18.51504913720542
 20
-5.5
 30
0.0
  0
VERTEX
  5
365
330
362
100
AcDbEntity
  8
Layer 1
 62
   179
420
  2301728
370
     9
100
AcDbVertex
100
AcDb2dVertex
 10
18.51504913720542
 20
-3.25
 30
0.0
  0
VERTEX
  5
366
330
362
100
AcDbEntity
  8
Layer 1
 62
   179
420
  2301728
370
     9
100
AcDbVertex
100
AcDb2dVertex
 10
20.76504913720542
 20
-3.25
 30
0.0
  0
VERTEX
  5
367
330
362
100
AcDbEntity
  8
Layer 1
 62
   179
420
  2301728
370
     9
100
AcDbVertex
100
AcDb2dVertex
 10
20.76504913720542
 20
-5.5
 30
0.0
  0
SEQEND
  5
368
330
362
100
AcDbEntity
  8
Layer 1
 62
   179
420
  2301728
370
     9
  0
POLYLINE
  5
369
330
1F
100
AcDbEntity
  8
Layer 1
 62
   179
420
  2301728
370
     9
100
AcDb2dPolyline
 66
     1
 10
0.0
 20
0.0
 30
0.0
  0
VERTEX
  5
36A
330
369
100
AcDbEntity
  8
Layer 1
 62
   179
420
  2301728
370
     9
100
AcDbVertex
100
AcDb2dVertex
 10
20.76504913720542
 20
-7.75
 30
0.0
  0
VERTEX
  5
36B
330
369
100
AcDbEntity
  8
Layer 1
 62
   179
420
  2301728
370
     9
100
AcDbVertex
100
AcDb2dVertex
 10
18.51504913720542
 20
-7.75
 30
0.0
  0
VERTEX
  5
36C
330
369
100
AcDbEntity
  8
Layer 1
 62
   179
420
  2301728
370
     9
100
AcDbVertex
100
AcDb2dVertex
 10
18.51504913720542
 20
-5.5
 30
0.0
  0
VERTEX
  5
36D
330
369
100
AcDbEntity
  8
Layer 1
 62
   179
420
  2301728
370
     9
100
AcDbVertex
100
AcDb2dVertex
 10
20.76504913720542
 20
-5.5
 30
0.0
  0
VERTEX
  5
36E
330
369
100
AcDbEntity
  8
Layer 1
 62
   179
420
  2301728
370
     9
100
AcDbVertex
100
AcDb2dVertex
 10
20.76504913720542
 20
-7.75
 30
0.0
  0
SEQEND
  5
36F
330
369
100
AcDbEntity
  8
Layer 1
 62
   179
420
  2301728
370
     9
  0
POLYLINE
  5
370
330
1F
100
AcDbEntity
  8
Layer 1
 62
   179
420
  2301728
370
     9
100
AcDb2dPolyline
 66
     1
 10
0.0
 20
0.0
 30
0.0
  0
VERTEX
  5
371
330
370
100
AcDbEntity
  8
Layer 1
 62
   179
420
  2301728
370
     9
100
AcDbVertex
100
AcDb2dVertex
 10
20.76504913720542
 20
-10.0
 30
0.0
  0
VERTEX
  5
372
330
370
100
AcDbEntity
  8
Layer 1
 62
   179
420
  2301728
370
     9
100
AcDbVertex
100
AcDb2dVertex
 10
18.51504913720542
 20
-10.0
 30
0.0
  0
VERTEX
  5
373
330
370
100
AcDbEntity
  8
Layer 1
 62
   179
420
  2301728
370
     9
100
AcDbVertex
100
AcDb2dVertex
 10
18.51504913720542
 20
-7.75
 30
0.0
  0
VERTEX
  5
374
330
370
100
AcDbEntity
  8
Layer 1
 62
   179
420
  2301728
370
     9
100
AcDbVertex
100
AcDb2dVertex
 10
20.76504913720542
 20
-7.75
 30
0.0
  0
VERTEX
  5
375
330
370
100
AcDbEntity
  8
Layer 1
 62
   179
420
  2301728
370
     9
100
AcDbVertex
100
AcDb2dVertex
 10
20.76504913720542
 20
-10.0
 30
0.0
  0
SEQEND
  5
376
330
370
100
AcDbEntity
  8
Layer 1
 62
   179
420
  2301728
370
     9
  0
POLYLINE
  5
377
330
1F
100
AcDbEntity
  8
Layer 1
 62
   179
420
  2301728
370
     9
100
AcDb2dPolyline
 66
     1
 10
0.0
 20
0.0
 30
0.0
  0
VERTEX
  5
378
330
377
100
AcDbEntity
  8
Layer 1
 62
   179
420
  2301728
370
     9
100
AcDbVertex
100
AcDb2dVertex
 10
11.93055555555556
 20
-3.25
 30
0.0
  0
VERTEX
  5
379
330
377
100
AcDbEntity
  8
Layer 1
 62
   179
420
  2301728
370
     9
100
AcDbVertex
100
AcDb2dVertex
 10
9.680555555555555
 20
-3.25
 30
0.0
  0
VERTEX
  5
37A
330
377
100
AcDbEntity
  8
Layer 1
 62
   179
420
  2301728
370
     9
100
AcDbVertex
100
AcDb2dVertex
 10
9.680555555555555
 20
-1.0
 30
0.0
  0
VERTEX
  5
37B
330
377
100
AcDbEntity
  8
Layer 1
 62
   179
420
  2301728
370
     9
100
AcDbVertex
100
AcDb2dVertex
 10
11.93055555555556
 20
-1.0
 30
0.0
  0
VERTEX
  5
37C
330
377
100
AcDbEntity
  8
Layer 1
 62
   179
420
  2301728
370
     9
100
AcDbVertex
100
AcDb2dVertex
 10
11.93055555555556
 20
-3.25
 30
0.0
  0
SEQEND
  5
37D
330
377
100
AcDbEntity
  8
Layer 1
 62
   179
420
  2301728
370
     9
  0
POLYLINE
  5
37E
330
1F
100
AcDbEntity
  8
Layer 1
 62
   179
420
  2301728
370
     9
100
AcDb2dPolyline
 66
     1
 10
0.0
 20
0.0
 30
0.0
  0
VERTEX
  5
37F
330
37E
100
AcDbEntity
  8
Layer 1
 62
   179
420
  2301728
370
     9
100
AcDbVertex
100
AcDb2dVertex
 10
11.93055555555556
 20
-5.5
 30
0.0
  0
VERTEX
  5
380
330
37E
100
AcDbEntity
  8
Layer 1
 62
   179
420
  2301728
370
     9
100
AcDbVertex
100
AcDb2dVertex
 10
9.680555555555555
 20
-5.5
 30
0.0
  0
VERTEX
  5
381
330
37E
100
AcDbEntity
  8
Layer 1
 62
   179
420
  2301728
370
     9
100
AcDbVertex
100
AcDb2dVertex
 10
9.680555555555555
 20
-3.25
 30
0.0
  0
VERTEX
  5
382
330
37E
100
AcDbEntity
  8
Layer 1
 62
   179
420
  2301728
370
     9
100
AcDbVertex
100
AcDb2dVertex
 10
11.93055555555556
 20
-3.25
 30
0.0
  0
VERTEX
  5
383
330
37E
100
AcDbEntity
  8
Layer 1
 62
   179
420
  2301728
370
     9
100
AcDbVertex
100
AcDb2dVertex
 10
11.93055555555556
 20
-5.5
 30
0.0
  0
SEQEND
  5
384
330
37E
100
AcDbEntity
  8
Layer 1
 62
   179
420
  2301728
370
     9
  0
POLYLINE
  5
385
330
1F
100
AcDbEntity
  8
Layer 1
 62
   179
420
  2301728
370
     9
100
AcDb2dPolyline
 66
     1
 10
0.0
 20
0.0
 30
0.0
  0
VERTEX
  5
386
330
385
100
AcDbEntity
  8
Layer 1
 62
   179
420
  2301728
370
     9
100
AcDbVertex
100
AcDb2dVertex
 10
11.93055555555556
 20
-7.75
 30
0.0
  0
VERTEX
  5
387
330
385
100
AcDbEntity
  8
Layer 1
 62
   179
420
  2301728
370
     9
100
AcDbVertex
100
AcDb2dVertex
 10
9.680555555555555
 20
-7.75
 30
0.0
  0
VERTEX
  5
388
330
385
100
AcDbEntity
  8
Layer 1
 62
   179
420
  2301728
370
     9
100
AcDbVertex
100
AcDb2dVertex
 10
9.680555555555555
 20
-5.5
 30
0.0
  0
VERTEX
  5
389
330
385
100
AcDbEntity
  8
Layer 1
 62
   179
420
  2301728
370
     9
100
AcDbVertex
100
AcDb2dVertex
 10
11.93055555555556
 20
-5.5
 30
0.0
  0
VERTEX
  5
38A
330
385
100
AcDbEntity
  8
Layer 1
 62
   179
420
  2301728
370
     9
100
AcDbVertex
100
AcDb2dVertex
 10
11.93055555555556
 20
-7.75
 30
0.0
  0
SEQEND
  5
38B
330
385
100
AcDbEntity
  8
Layer 1
 62
   179
420
  2301728
370
     9
  0
POLYLINE
  5
38C
330
1F
100
AcDbEntity
  8
Layer 1
 62
   179
420
  2301728
370
     9
100
AcDb2dPolyline
 66
     1
 10
0.0
 20
0.0
 30
0.0
  0
VERTEX
  5
38D
330
38C
100
AcDbEntity
  8
Layer 1
 62
   179
420
  2301728
370
     9
100
AcDbVertex
100
AcDb2dVertex
 10
11.93055555555556
 20
-10.0
 30
0.0
  0
VERTEX
  5
38E
330
38C
100
AcDbEntity
  8
Layer 1
 62
   179
420
  2301728
370
     9
100
AcDbVertex
100
AcDb2dVertex
 10
9.680555555555555
 20
-10.0
 30
0.0
  0
VERTEX
  5
38F
330
38C
100
AcDbEntity
  8
Layer 1
 62
   179
420
  2301728
370
     9
100
AcDbVertex
100
AcDb2dVertex
 10
9.680555555555555
 20
-7.75
 30
0.0
  0
VERTEX
  5
390
330
38C
100
AcDbEntity
  8
Layer 1
 62
   179
420
  2301728
370
     9
100
AcDbVertex
100
AcDb2dVertex
 10
11.93055555555556
 20
-7.75
 30
0.0
  0
VERTEX
  5
391
330
38C
100
AcDbEntity
  8
Layer 1
 62
   179
420
  2301728
370
     9
100
AcDbVertex
100
AcDb2dVertex
 10
11.93055555555556
 20
-10.0
 30
0.0
  0
SEQEND
  5
392
330
38C
100
AcDbEntity
  8
Layer 1
 62
   179
420
  2301728
370
     9
  0
POLYLINE
  5
393
330
1F
100
AcDbEntity
  8
Layer 1
 62
   179
420
  2301728
370
     9
100
AcDb2dPolyline
 66
     1
 10
0.0
 20
0.0
 30
0.0
  0
VERTEX
  5
394
330
393
100
AcDbEntity
  8
Layer 1
 62
   179
420
  2301728
370
     9
100
AcDbVertex
100
AcDb2dVertex
 10
14.18055555555556
 20
-3.25
 30
0.0
  0
VERTEX
  5
395
330
393
100
AcDbEntity
  8
Layer 1
 62
   179
420
  2301728
370
     9
100
AcDbVertex
100
AcDb2dVertex
 10
11.93055555555556
 20
-3.25
 30
0.0
  0
VERTEX
  5
396
330
393
100
AcDbEntity
  8
Layer 1
 62
   179
420
  2301728
370
     9
100
AcDbVertex
100
AcDb2dVertex
 10
11.93055555555556
 20
-1.0
 30
0.0
  0
VERTEX
  5
397
330
393
100
AcDbEntity
  8
Layer 1
 62
   179
420
  2301728
370
     9
100
AcDbVertex
100
AcDb2dVertex
 10
14.18055555555556
 20
-1.0
 30
0.0
  0
VERTEX
  5
398
330
393
100
AcDbEntity
  8
Layer 1
 62
   179
420
  2301728
370
     9
100
AcDbVertex
100
AcDb2dVertex
 10
14.18055555555556
 20
-3.25
 30
0.0
  0
SEQEND
  5
399
330
393
100
AcDbEntity
  8
Layer 1
 62
   179
420
  2301728
370
     9
  0
POLYLINE
  5
39A
330
1F
100
AcDbEntity
  8
Layer 1
 62
   179
420
  2301728
370
     9
100
AcDb2dPolyline
 66
     1
 10
0.0
 20
0.0
 30
0.0
  0
VERTEX
  5
39B
330
39A
100
AcDbEntity
  8
Layer 1
 62
   179
420
  2301728
370
     9
100
AcDbVertex
100
AcDb2dVertex
 10
14.18055555555556
 20
-5.5
 30
0.0
  0
VERTEX
  5
39C
330
39A
100
AcDbEntity
  8
Layer 1
 62
   179
420
  2301728
370
     9
100
AcDbVertex
100
AcDb2dVertex
 10
11.93055555555556
 20
-5.5
 30
0.0
  0
VERTEX
  5
39D
330
39A
100
AcDbEntity
  8
Layer 1
 62
   179
420
  2301728
370
     9
100
AcDbVertex
100
AcDb2dVertex
 10
11.93055555555556
 20
-3.25
 30
0.0
  0
VERTEX
  5
39E
330
39A
100
AcDbEntity
  8
Layer 1
 62
   179
420
  2301728
370
     9
100
AcDbVertex
100
AcDb2dVertex
 10
14.18055555555556
 20
-3.25
 30
0.0
  0
VERTEX
  5
39F
330
39A
100
AcDbEntity
  8
Layer 1
 62
   179
420
  2301728
370
     9
100
AcDbVertex
100
AcDb2dVertex
 10
14.18055555555556
 20
-5.5
 30
0.0
  0
SEQEND
  5
3A0
330
39A
100
AcDbEntity
  8
Layer 1
 62
   179
420
  2301728
370
     9
  0
POLYLINE
  5
3A1
330
1F
100
AcDbEntity
  8
Layer 1
 62
   179
420
  2301728
370
     9
100
AcDb2dPolyline
 66
     1
 10
0.0
 20
0.0
 30
0.0
  0
VERTEX
  5
3A2
330
3A1
100
AcDbEntity
  8
Layer 1
 62
   179
420
  2301728
370
     9
100
AcDbVertex
100
AcDb2dVertex
 10
14.18055555555556
 20
-7.75
 30
0.0
  0
VERTEX
  5
3A3
330
3A1
100
AcDbEntity
  8
Layer 1
 62
   179
420
  2301728
370
     9
100
AcDbVertex
100
AcDb2dVertex
 10
11.93055555555556
 20
-7.75
 30
0.0
  0
VERTEX
  5
3A4
330
3A1
100
AcDbEntity
  8
Layer 1
 62
   179
420
  2301728
370
     9
100
AcDbVertex
100
AcDb2dVertex
 10
11.93055555555556
 20
-5.5
 30
0.0
  0
VERTEX
  5
3A5
330
3A1
100
AcDbEntity
  8
Layer 1
 62
   179
420
  2301728
370
     9
100
AcDbVertex
100
AcDb2dVertex
 10
14.18055555555556
 20
-5.5
 30
0.0
  0
VERTEX
  5
3A6
330
3A1
100
AcDbEntity
  8
Layer 1
 62
   179
420
  2301728
370
     9
100
AcDbVertex
100
AcDb2dVertex
 10
14.18055555555556
 20
-7.75
 30
0.0
  0
SEQEND
  5
3A7
330
3A1
100
AcDbEntity
  8
Layer 1
 62
   179
420
  2301728
370
     9
  0
POLYLINE
  5
3A8
330
1F
100
AcDbEntity
  8
Layer 1
 62
   179
420
  2301728
370
     9
100
AcDb2dPolyline
 66
     1
 10
0.0
 20
0.0
 30
0.0
  0
VERTEX
  5
3A9
330
3A8
100
AcDbEntity
  8
Layer 1
 62
   179
420
  2301728
370
     9
100
AcDbVertex
100
AcDb2dVertex
 10
14.18055555555556
 20
-10.0
 30
0.0
  0
VERTEX
  5
3AA
330
3A8
100
AcDbEntity
  8
Layer 1
 62
   179
420
  2301728
370
     9
100
AcDbVertex
100
AcDb2dVertex
 10
11.93055555555556
 20
-10.0
 30
0.0
  0
VERTEX
  5
3AB
330
3A8
100
AcDbEntity
  8
Layer 1
 62
   179
420
  2301728
370
     9
100
AcDbVertex
100
AcDb2dVertex
 10
11.93055555555556
 20
-7.75
 30
0.0
  0
VERTEX
  5
3AC
330
3A8
100
AcDbEntity
  8
Layer 1
 62
   179
420
  2301728
370
     9
100
AcDbVertex
100
AcDb2dVertex
 10
14.18055555555556
 20
-7.75
 30
0.0
  0
VERTEX
  5
3AD
330
3A8
100
AcDbEntity
  8
Layer 1
 62
   179
420
  2301728
370
     9
100
AcDbVertex
100
AcDb2dVertex
 10
14.18055555555556
 20
-10.0
 30
0.0
  0
SEQEND
  5
3AE
330
3A8
100
AcDbEntity
  8
Layer 1
 62
   179
420
  2301728
370
     9
  0
POLYLINE
  5
3AF
330
1F
100
AcDbEntity
  8
Layer 1
 62
   179
420
  2301728
370
     9
100
AcDb2dPolyline
 66
     1
 10
0.0
 20
0.0
 30
0.0
  0
VERTEX
  5
3B0
330
3AF
100
AcDbEntity
  8
Layer 1
 62
   179
420
  2301728
370
     9
100
AcDbVertex
100
AcDb2dVertex
 10
16.43055555555555
 20
-3.25
 30
0.0
  0
VERTEX
  5
3B1
330
3AF
100
AcDbEntity
  8
Layer 1
 62
   179
420
  2301728
370
     9
100
AcDbVertex
100
AcDb2dVertex
 10
14.18055555555556
 20
-3.25
 30
0.0
  0
VERTEX
  5
3B2
330
3AF
100
AcDbEntity
  8
Layer 1
 62
   179
420
  2301728
370
     9
100
AcDbVertex
100
AcDb2dVertex
 10
14.18055555555556
 20
-1.0
 30
0.0
  0
VERTEX
  5
3B3
330
3AF
100
AcDbEntity
  8
Layer 1
 62
   179
420
  2301728
370
     9
100
AcDbVertex
100
AcDb2dVertex
 10
16.43055555555555
 20
-1.0
 30
0.0
  0
VERTEX
  5
3B4
330
3AF
100
AcDbEntity
  8
Layer 1
 62
   179
420
  2301728
370
     9
100
AcDbVertex
100
AcDb2dVertex
 10
16.43055555555555
 20
-3.25
 30
0.0
  0
SEQEND
  5
3B5
330
3AF
100
AcDbEntity
  8
Layer 1
 62
   179
420
  2301728
370
     9
  0
POLYLINE
  5
3B6
330
1F
100
AcDbEntity
  8
Layer 1
 62
   179
420
  2301728
370
     9
100
AcDb2dPolyline
 66
     1
 10
0.0
 20
0.0
 30
0.0
  0
VERTEX
  5
3B7
330
3B6
100
AcDbEntity
  8
Layer 1
 62
   179
420
  2301728
370
     9
100
AcDbVertex
100
AcDb2dVertex
 10
3.125
 20
-3.25
 30
0.0
  0
VERTEX
  5
3B8
330
3B6
100
AcDbEntity
  8
Layer 1
 62
   179
420
  2301728
370
     9
100
AcDbVertex
100
AcDb2dVertex
 10
0.875
 20
-3.25
 30
0.0
  0
VERTEX
  5
3B9
330
3B6
100
AcDbEntity
  8
Layer 1
 62
   179
420
  2301728
370
     9
100
AcDbVertex
100
AcDb2dVertex
 10
0.875
 20
-1.0
 30
0.0
  0
VERTEX
  5
3BA
330
3B6
100
AcDbEntity
  8
Layer 1
 62
   179
420
  2301728
370
     9
100
AcDbVertex
100
AcDb2dVertex
 10
3.125
 20
-1.0
 30
0.0
  0
VERTEX
  5
3BB
330
3B6
100
AcDbEntity
  8
Layer 1
 62
   179
420
  2301728
370
     9
100
AcDbVertex
100
AcDb2dVertex
 10
3.125
 20
-3.25
 30
0.0
  0
SEQEND
  5
3BC
330
3B6
100
AcDbEntity
  8
Layer 1
 62
   179
420
  2301728
370
     9
  0
POLYLINE
  5
3BD
330
1F
100
AcDbEntity
  8
Layer 1
 62
   179
420
  2301728
370
     9
100
AcDb2dPolyline
 66
     1
 10
0.0
 20
0.0
 30
0.0
  0
VERTEX
  5
3BE
330
3BD
100
AcDbEntity
  8
Layer 1
 62
   179
420
  2301728
370
     9
100
AcDbVertex
100
AcDb2dVertex
 10
5.375
 20
-3.25
 30
0.0
  0
VERTEX
  5
3BF
330
3BD
100
AcDbEntity
  8
Layer 1
 62
   179
420
  2301728
370
     9
100
AcDbVertex
100
AcDb2dVertex
 10
3.125
 20
-3.25
 30
0.0
  0
VERTEX
  5
3C0
330
3BD
100
AcDbEntity
  8
Layer 1
 62
   179
420
  2301728
370
     9
100
AcDbVertex
100
AcDb2dVertex
 10
3.125
 20
-1.0
 30
0.0
  0
VERTEX
  5
3C1
330
3BD
100
AcDbEntity
  8
Layer 1
 62
   179
420
  2301728
370
     9
100
AcDbVertex
100
AcDb2dVertex
 10
5.375
 20
-1.0
 30
0.0
  0
VERTEX
  5
3C2
330
3BD
100
AcDbEntity
  8
Layer 1
 62
   179
420
  2301728
370
     9
100
AcDbVertex
100
AcDb2dVertex
 10
5.375
 20
-3.25
 30
0.0
  0
SEQEND
  5
3C3
330
3BD
100
AcDbEntity
  8
Layer 1
 62
   179
420
  2301728
370
     9
  0
POLYLINE
  5
3C4
330
1F
100
AcDbEntity
  8
Layer 1
 62
   179
420
  2301728
370
     9
100
AcDb2dPolyline
 66
     1
 10
0.0
 20
0.0
 30
0.0
  0
VERTEX
  5
3C5
330
3C4
100
AcDbEntity
  8
Layer 1
 62
   179
420
  2301728
370
     9
100
AcDbVertex
100
AcDb2dVertex
 10
7.625
 20
-3.25
 30
0.0
  0
VERTEX
  5
3C6
330
3C4
100
AcDbEntity
  8
Layer 1
 62
   179
420
  2301728
370
     9
100
AcDbVertex
100
AcDb2dVertex
 10
5.375
 20
-3.25
 30
0.0
  0
VERTEX
  5
3C7
330
3C4
100
AcDbEntity
  8
Layer 1
 62
   179
420
  2301728
370
     9
100
AcDbVertex
100
AcDb2dVertex
 10
5.375
 20
-1.0
 30
0.0
  0
VERTEX
  5
3C8
330
3C4
100
AcDbEntity
  8
Layer 1
 62
   179
420
  2301728
370
     9
100
AcDbVertex
100
AcDb2dVertex
 10
7.625
 20
-1.0
 30
0.0
  0
VERTEX
  5
3C9
330
3C4
100
AcDbEntity
  8
Layer 1
 62
   179
420
  2301728
370
     9
100
AcDbVertex
100
AcDb2dVertex
 10
7.625
 20
-3.25
 30
0.0
  0
SEQEND
  5
3CA
330
3C4
100
AcDbEntity
  8
Layer 1
 62
   179
420
  2301728
370
     9
  0
POLYLINE
  5
3CB
330
1F
100
AcDbEntity
  8
Layer 1
 62
   179
420
  2301728
370
     9
100
AcDb2dPolyline
 66
     1
 10
0.0
 20
0.0
 30
0.0
  0
VERTEX
  5
3CC
330
3CB
100
AcDbEntity
  8
Layer 1
 62
   179
420
  2301728
370
     9
100
AcDbVertex
100
AcDb2dVertex
 10
3.125
 20
-5.5
 30
0.0
  0
VERTEX
  5
3CD
330
3CB
100
AcDbEntity
  8
Layer 1
 62
   179
420
  2301728
370
     9
100
AcDbVertex
100
AcDb2dVertex
 10
0.875
 20
-5.5
 30
0.0
  0
VERTEX
  5
3CE
330
3CB
100
AcDbEntity
  8
Layer 1
 62
   179
420
  2301728
370
     9
100
AcDbVertex
100
AcDb2dVertex
 10
0.875
 20
-3.25
 30
0.0
  0
VERTEX
  5
3CF
330
3CB
100
AcDbEntity
  8
Layer 1
 62
   179
420
  2301728
370
     9
100
AcDbVertex
100
AcDb2dVertex
 10
3.125
 20
-3.25
 30
0.0
  0
VERTEX
  5
3D0
330
3CB
100
AcDbEntity
  8
Layer 1
 62
   179
420
  2301728
370
     9
100
AcDbVertex
100
AcDb2dVertex
 10
3.125
 20
-5.5
 30
0.0
  0
SEQEND
  5
3D1
330
3CB
100
AcDbEntity
  8
Layer 1
 62
   179
420
  2301728
370
     9
  0
POLYLINE
  5
3D2
330
1F
100
AcDbEntity
  8
Layer 1
 62
   179
420
  2301728
370
     9
100
AcDb2dPolyline
 66
     1
 10
0.0
 20
0.0
 30
0.0
  0
VERTEX
  5
3D3
330
3D2
100
AcDbEntity
  8
Layer 1
 62
   179
420
  2301728
370
     9
100
AcDbVertex
100
AcDb2dVertex
 10
5.375
 20
-5.5
 30
0.0
  0
VERTEX
  5
3D4
330
3D2
100
AcDbEntity
  8
Layer 1
 62
   179
420
  2301728
370
     9
100
AcDbVertex
100
AcDb2dVertex
 10
3.125
 20
-5.5
 30
0.0
  0
VERTEX
  5
3D5
330
3D2
100
AcDbEntity
  8
Layer 1
 62
   179
420
  2301728
370
     9
100
AcDbVertex
100
AcDb2dVertex
 10
3.125
 20
-3.25
 30
0.0
  0
VERTEX
  5
3D6
330
3D2
100
AcDbEntity
  8
Layer 1
 62
   179
420
  2301728
370
     9
100
AcDbVertex
100
AcDb2dVertex
 10
5.375
 20
-3.25
 30
0.0
  0
VERTEX
  5
3D7
330
3D2
100
AcDbEntity
  8
Layer 1
 62
   179
420
  2301728
370
     9
100
AcDbVertex
100
AcDb2dVertex
 10
5.375
 20
-5.5
 30
0.0
  0
SEQEND
  5
3D8
330
3D2
100
AcDbEntity
  8
Layer 1
 62
   179
420
  2301728
370
     9
  0
POLYLINE
  5
3D9
330
1F
100
AcDbEntity
  8
Layer 1
 62
   179
420
  2301728
370
     9
100
AcDb2dPolyline
 66
     1
 10
0.0
 20
0.0
 30
0.0
  0
VERTEX
  5
3DA
330
3D9
100
AcDbEntity
  8
Layer 1
 62
   179
420
  2301728
370
     9
100
AcDbVertex
100
AcDb2dVertex
 10
7.625
 20
-5.5
 30
0.0
  0
VERTEX
  5
3DB
330
3D9
100
AcDbEntity
  8
Layer 1
 62
   179
420
  2301728
370
     9
100
AcDbVertex
100
AcDb2dVertex
 10
5.375
 20
-5.5
 30
0.0
  0
VERTEX
  5
3DC
330
3D9
100
AcDbEntity
  8
Layer 1
 62
   179
420
  2301728
370
     9
100
AcDbVertex
100
AcDb2dVertex
 10
5.375
 20
-3.25
 30
0.0
  0
VERTEX
  5
3DD
330
3D9
100
AcDbEntity
  8
Layer 1
 62
   179
420
  2301728
370
     9
100
AcDbVertex
100
AcDb2dVertex
 10
7.625
 20
-3.25
 30
0.0
  0
VERTEX
  5
3DE
330
3D9
100
AcDbEntity
  8
Layer 1
 62
   179
420
  2301728
370
     9
100
AcDbVertex
100
AcDb2dVertex
 10
7.625
 20
-5.5
 30
0.0
  0
SEQEND
  5
3DF
330
3D9
100
AcDbEntity
  8
Layer 1
 62
   179
420
  2301728
370
     9
  0
POLYLINE
  5
3E0
330
1F
100
AcDbEntity
  8
Layer 1
 62
   179
420
  2301728
370
     9
100
AcDb2dPolyline
 66
     1
 10
0.0
 20
0.0
 30
0.0
  0
VERTEX
  5
3E1
330
3E0
100
AcDbEntity
  8
Layer 1
 62
   179
420
  2301728
370
     9
100
AcDbVertex
100
AcDb2dVertex
 10
3.125
 20
-7.75
 30
0.0
  0
VERTEX
  5
3E2
330
3E0
100
AcDbEntity
  8
Layer 1
 62
   179
420
  2301728
370
     9
100
AcDbVertex
100
AcDb2dVertex
 10
0.875
 20
-7.75
 30
0.0
  0
VERTEX
  5
3E3
330
3E0
100
AcDbEntity
  8
Layer 1
 62
   179
420
  2301728
370
     9
100
AcDbVertex
100
AcDb2dVertex
 10
0.875
 20
-5.5
 30
0.0
  0
VERTEX
  5
3E4
330
3E0
100
AcDbEntity
  8
Layer 1
 62
   179
420
  2301728
370
     9
100
AcDbVertex
100
AcDb2dVertex
 10
3.125
 20
-5.5
 30
0.0
  0
VERTEX
  5
3E5
330
3E0
100
AcDbEntity
  8
Layer 1
 62
   179
420
  2301728
370
     9
100
AcDbVertex
100
AcDb2dVertex
 10
3.125
 20
-7.75
 30
0.0
  0
SEQEND
  5
3E6
330
3E0
100
AcDbEntity
  8
Layer 1
 62
   179
420
  2301728
370
     9
  0
POLYLINE
  5
3E7
330
1F
100
AcDbEntity
  8
Layer 1
 62
   179
420
  2301728
370
     9
100
AcDb2dPolyline
 66
     1
 10
0.0
 20
0.0
 30
0.0
  0
VERTEX
  5
3E8
330
3E7
100
AcDbEntity
  8
Layer 1
 62
   179
420
  2301728
370
     9
100
AcDbVertex
100
AcDb2dVertex
 10
5.375
 20
-7.75
 30
0.0
  0
VERTEX
  5
3E9
330
3E7
100
AcDbEntity
  8
Layer 1
 62
   179
420
  2301728
370
     9
100
AcDbVertex
100
AcDb2dVertex
 10
3.125
 20
-7.75
 30
0.0
  0
VERTEX
  5
3EA
330
3E7
100
AcDbEntity
  8
Layer 1
 62
   179
420
  2301728
370
     9
100
AcDbVertex
100
AcDb2dVertex
 10
3.125
 20
-5.5
 30
0.0
  0
VERTEX
  5
3EB
330
3E7
100
AcDbEntity
  8
Layer 1
 62
   179
420
  2301728
370
     9
100
AcDbVertex
100
AcDb2dVertex
 10
5.375
 20
-5.5
 30
0.0
  0
VERTEX
  5
3EC
330
3E7
100
AcDbEntity
  8
Layer 1
 62
   179
420
  2301728
370
     9
100
AcDbVertex
100
AcDb2dVertex
 10
5.375
 20
-7.75
 30
0.0
  0
SEQEND
  5
3ED
330
3E7
100
AcDbEntity
  8
Layer 1
 62
   179
420
  2301728
370
     9
  0
POLYLINE
  5
3EE
330
1F
100
AcDbEntity
  8
Layer 1
 62
   179
420
  2301728
370
     9
100
AcDb2dPolyline
 66
     1
 10
0.0
 20
0.0
 30
0.0
  0
VERTEX
  5
3EF
330
3EE
100
AcDbEntity
  8
Layer 1
 62
   179
420
  2301728
370
     9
100
AcDbVertex
100
AcDb2dVertex
 10
7.625
 20
-7.75
 30
0.0
  0
VERTEX
  5
3F0
330
3EE
100
AcDbEntity
  8
Layer 1
 62
   179
420
  2301728
370
     9
100
AcDbVertex
100
AcDb2dVertex
 10
5.375
 20
-7.75
 30
0.0
  0
VERTEX
  5
3F1
330
3EE
100
AcDbEntity
  8
Layer 1
 62
   179
420
  2301728
370
     9
100
AcDbVertex
100
AcDb2dVertex
 10
5.375
 20
-5.5
 30
0.0
  0
VERTEX
  5
3F2
330
3EE
100
AcDbEntity
  8
Layer 1
 62
   179
420
  2301728
370
     9
100
AcDbVertex
100
AcDb2dVertex
 10
7.625
 20
-5.5
 30
0.0
  0
VERTEX
  5
3F3
330
3EE
100
AcDbEntity
  8
Layer 1
 62
   179
420
  2301728
370
     9
100
AcDbVertex
100
AcDb2dVertex
 10
7.625
 20
-7.75
 30
0.0
  0
SEQEND
  5
3F4
330
3EE
100
AcDbEntity
  8
Layer 1
 62
   179
420
  2301728
370
     9
  0
POLYLINE
  5
3F5
330
1F
100
AcDbEntity
  8
Layer 1
 62
   179
420
  2301728
370
     9
100
AcDb2dPolyline
 66
     1
 10
0.0
 20
0.0
 30
0.0
  0
VERTEX
  5
3F6
330
3F5
100
AcDbEntity
  8
Layer 1
 62
   179
420
  2301728
370
     9
100
AcDbVertex
100
AcDb2dVertex
 10
3.125
 20
-10.0
 30
0.0
  0
VERTEX
  5
3F7
330
3F5
100
AcDbEntity
  8
Layer 1
 62
   179
420
  2301728
370
     9
100
AcDbVertex
100
AcDb2dVertex
 10
0.875
 20
-10.0
 30
0.0
  0
VERTEX
  5
3F8
330
3F5
100
AcDbEntity
  8
Layer 1
 62
   179
420
  2301728
370
     9
100
AcDbVertex
100
AcDb2dVertex
 10
0.875
 20
-7.75
 30
0.0
  0
VERTEX
  5
3F9
330
3F5
100
AcDbEntity
  8
Layer 1
 62
   179
420
  2301728
370
     9
100
AcDbVertex
100
AcDb2dVertex
 10
3.125
 20
-7.75
 30
0.0
  0
VERTEX
  5
3FA
330
3F5
100
AcDbEntity
  8
Layer 1
 62
   179
420
  2301728
370
     9
100
AcDbVertex
100
AcDb2dVertex
 10
3.125
 20
-10.0
 30
0.0
  0
SEQEND
  5
3FB
330
3F5
100
AcDbEntity
  8
Layer 1
 62
   179
420
  2301728
370
     9
  0
POLYLINE
  5
3FC
330
1F
100
AcDbEntity
  8
Layer 1
 62
   179
420
  2301728
370
     9
100
AcDb2dPolyline
 66
     1
 10
0.0
 20
0.0
 30
0.0
  0
VERTEX
  5
3FD
330
3FC
100
AcDbEntity
  8
Layer 1
 62
   179
420
  2301728
370
     9
100
AcDbVertex
100
AcDb2dVertex
 10
5.375
 20
-10.0
 30
0.0
  0
VERTEX
  5
3FE
330
3FC
100
AcDbEntity
  8
Layer 1
 62
   179
420
  2301728
370
     9
100
AcDbVertex
100
AcDb2dVertex
 10
3.125
 20
-10.0
 30
0.0
  0
VERTEX
  5
3FF
330
3FC
100
AcDbEntity
  8
Layer 1
 62
   179
420
  2301728
370
     9
100
AcDbVertex
100
AcDb2dVertex
 10
3.125
 20
-7.75
 30
0.0
  0
VERTEX
  5
400
330
3FC
100
AcDbEntity
  8
Layer 1
 62
   179
420
  2301728
370
     9
100
AcDbVertex
100
AcDb2dVertex
 10
5.375
 20
-7.75
 30
0.0
  0
VERTEX
  5
401
330
3FC
100
AcDbEntity
  8
Layer 1
 62
   179
420
  2301728
370
     9
100
AcDbVertex
100
AcDb2dVertex
 10
5.375
 20
-10.0
 30
0.0
  0
SEQEND
  5
402
330
3FC
100
AcDbEntity
  8
Layer 1
 62
   179
420
  2301728
370
     9
  0
POLYLINE
  5
403
330
1F
100
AcDbEntity
  8
Layer 1
 62
   179
420
  2301728
370
     9
100
AcDb2dPolyline
 66
     1
 10
0.0
 20
0.0
 30
0.0
  0
VERTEX
  5
404
330
403
100
AcDbEntity
  8
Layer 1
 62
   179
420
  2301728
370
     9
100
AcDbVertex
100
AcDb2dVertex
 10
7.625
 20
-10.0
 30
0.0
  0
VERTEX
  5
405
330
403
100
AcDbEntity
  8
Layer 1
 62
   179
420
  2301728
370
     9
100
AcDbVertex
100
AcDb2dVertex
 10
5.375
 20
-10.0
 30
0.0
  0
VERTEX
  5
406
330
403
100
AcDbEntity
  8
Layer 1
 62
   179
420
  2301728
370
     9
100
AcDbVertex
100
AcDb2dVertex
 10
5.375
 20
-7.75
 30
0.0
  0
VERTEX
  5
407
330
403
100
AcDbEntity
  8
Layer 1
 62
   179
420
  2301728
370
     9
100
AcDbVertex
100
AcDb2dVertex
 10
7.625
 20
-7.75
 30
0.0
  0
VERTEX
  5
408
330
403
100
AcDbEntity
  8
Layer 1
 62
   179
420
  2301728
370
     9
100
AcDbVertex
100
AcDb2dVertex
 10
7.625
 20
-10.0
 30
0.0
  0
SEQEND
  5
409
330
403
100
AcDbEntity
  8
Layer 1
 62
   179
420
  2301728
370
     9
  0
POLYLINE
  5
40A
330
1F
100
AcDbEntity
  8
Layer 1
 62
   179
420
  2301728
370
     9
100
AcDb2dPolyline
 66
     1
 10
0.0
 20
0.0
 30
0.0
  0
VERTEX
  5
40B
330
40A
100
AcDbEntity
  8
Layer 1
 62
   179
420
  2301728
370
     9
100
AcDbVertex
100
AcDb2dVertex
 10
16.43055555555555
 20
-5.5
 30
0.0
  0
VERTEX
  5
40C
330
40A
100
AcDbEntity
  8
Layer 1
 62
   179
420
  2301728
370
     9
100
AcDbVertex
100
AcDb2dVertex
 10
14.18055555555556
 20
-5.5
 30
0.0
  0
VERTEX
  5
40D
330
40A
100
AcDbEntity
  8
Layer 1
 62
   179
420
  2301728
370
     9
100
AcDbVertex
100
AcDb2dVertex
 10
14.18055555555556
 20
-3.25
 30
0.0
  0
VERTEX
  5
40E
330
40A
100
AcDbEntity
  8
Layer 1
 62
   179
420
  2301728
370
     9
100
AcDbVertex
100
AcDb2dVertex
 10
16.43055555555555
 20
-3.25
 30
0.0
  0
VERTEX
  5
40F
330
40A
100
AcDbEntity
  8
Layer 1
 62
   179
420
  2301728
370
     9
100
AcDbVertex
100
AcDb2dVertex
 10
16.43055555555555
 20
-5.5
 30
0.0
  0
SEQEND
  5
410
330
40A
100
AcDbEntity
  8
Layer 1
 62
   179
420
  2301728
370
     9
  0
POLYLINE
  5
411
330
1F
100
AcDbEntity
  8
Layer 1
 62
   179
420
  2301728
370
     9
100
AcDb2dPolyline
 66
     1
 10
0.0
 20
0.0
 30
0.0
  0
VERTEX
  5
412
330
411
100
AcDbEntity
  8
Layer 1
 62
   179
420
  2301728
370
     9
100
AcDbVertex
100
AcDb2dVertex
 10
16.43055555555555
 20
-7.75
 30
0.0
  0
VERTEX
  5
413
330
411
100
AcDbEntity
  8
Layer 1
 62
   179
420
  2301728
370
     9
100
AcDbVertex
100
AcDb2dVertex
 10
14.18055555555556
 20
-7.75
 30
0.0
  0
VERTEX
  5
414
330
411
100
AcDbEntity
  8
Layer 1
 62
   179
420
  2301728
370
     9
100
AcDbVertex
100
AcDb2dVertex
 10
14.18055555555556
 20
-5.5
 30
0.0
  0
VERTEX
  5
415
330
411
100
AcDbEntity
  8
Layer 1
 62
   179
420
  2301728
370
     9
100
AcDbVertex
100
AcDb2dVertex
 10
16.43055555555555
 20
-5.5
 30
0.0
  0
VERTEX
  5
416
330
411
100
AcDbEntity
  8
Layer 1
 62
   179
420
  2301728
370
     9
100
AcDbVertex
100
AcDb2dVertex
 10
16.43055555555555
 20
-7.75
 30
0.0
  0
SEQEND
  5
417
330
411
100
AcDbEntity
  8
Layer 1
 62
   179
420
  2301728
370
     9
  0
POLYLINE
  5
418
330
1F
100
AcDbEntity
  8
Layer 1
 62
   179
420
  2301728
370
     9
100
AcDb2dPolyline
 66
     1
 10
0.0
 20
0.0
 30
0.0
  0
VERTEX
  5
419
330
418
100
AcDbEntity
  8
Layer 1
 62
   179
420
  2301728
370
     9
100
AcDbVertex
100
AcDb2dVertex
 10
16.43055555555555
 20
-10.0
 30
0.0
  0
VERTEX
  5
41A
330
418
100
AcDbEntity
  8
Layer 1
 62
   179
420
  2301728
370
     9
100
AcDbVertex
100
AcDb2dVertex
 10
14.18055555555556
 20
-10.0
 30
0.0
  0
VERTEX
  5
41B
330
418
100
AcDbEntity
  8
Layer 1
 62
   179
420
  2301728
370
     9
100
AcDbVertex
100
AcDb2dVertex
 10
14.18055555555556
 20
-7.75
 30
0.0
  0
VERTEX
  5
41C
330
418
100
AcDbEntity
  8
Layer 1
 62
   179
420
  2301728
370
     9
100
AcDbVertex
100
AcDb2dVertex
 10
16.43055555555555
 20
-7.75
 30
0.0
  0
VERTEX
  5
41D
330
418
100
AcDbEntity
  8
Layer 1
 62
   179
420
  2301728
370
     9
100
AcDbVertex
100
AcDb2dVertex
 10
16.43055555555555
 20
-10.0
 30
0.0
  0
SEQEND
  5
41E
330
418
100
AcDbEntity
  8
Layer 1
 62
   179
420
  2301728
370
     9
  0
POLYLINE
  5
41F
330
1F
100
AcDbEntity
  8
Layer 1
 62
   179
420
  2301728
370
     9
100
AcDb2dPolyline
 66
     1
 10
0.0
 20
0.0
 30
0.0
  0
VERTEX
  5
420
330
41F
100
AcDbEntity
  8
Layer 1
 62
   179
420
  2301728
370
     9
100
AcDbVertex
100
AcDb2dVertex
 10
23.01504913720542
 20
-3.25
 30
0.0
  0
VERTEX
  5
421
330
41F
100
AcDbEntity
  8
Layer 1
 62
   179
420
  2301728
370
     9
100
AcDbVertex
100
AcDb2dVertex
 10
20.76504913720542
 20
-3.25
 30
0.0
  0
VERTEX
  5
422
330
41F
100
AcDbEntity
  8
Layer 1
 62
   179
420
  2301728
370
     9
100
AcDbVertex
100
AcDb2dVertex
 10
20.76504913720542
 20
-1.0
 30
0.0
  0
VERTEX
  5
423
330
41F
100
AcDbEntity
  8
Layer 1
 62
   179
420
  2301728
370
     9
100
AcDbVertex
100
AcDb2dVertex
 10
23.01504913720542
 20
-1.0
 30
0.0
  0
VERTEX
  5
424
330
41F
100
AcDbEntity
  8
Layer 1
 62
   179
420
  2301728
370
     9
100
AcDbVertex
100
AcDb2dVertex
 10
23.01504913720542
 20
-3.25
 30
0.0
  0
SEQEND
  5
425
330
41F
100
AcDbEntity
  8
Layer 1
 62
   179
420
  2301728
370
     9
  0
POLYLINE
  5
426
330
1F
100
AcDbEntity
  8
Layer 1
 62
   179
420
  2301728
370
     9
100
AcDb2dPolyline
 66
     1
 10
0.0
 20
0.0
 30
0.0
  0
VERTEX
  5
427
330
426
100
AcDbEntity
  8
Layer 1
 62
   179
420
  2301728
370
     9
100
AcDbVertex
100
AcDb2dVertex
 10
23.01504913720542
 20
-5.5
 30
0.0
  0
VERTEX
  5
428
330
426
100
AcDbEntity
  8
Layer 1
 62
   179
420
  2301728
370
     9
100
AcDbVertex
100
AcDb2dVertex
 10
20.76504913720542
 20
-5.5
 30
0.0
  0
VERTEX
  5
429
330
426
100
AcDbEntity
  8
Layer 1
 62
   179
420
  2301728
370
     9
100
AcDbVertex
100
AcDb2dVertex
 10
20.76504913720542
 20
-3.25
 30
0.0
  0
VERTEX
  5
42A
330
426
100
AcDbEntity
  8
Layer 1
 62
   179
420
  2301728
370
     9
100
AcDbVertex
100
AcDb2dVertex
 10
23.01504913720542
 20
-3.25
 30
0.0
  0
VERTEX
  5
42B
330
426
100
AcDbEntity
  8
Layer 1
 62
   179
420
  2301728
370
     9
100
AcDbVertex
100
AcDb2dVertex
 10
23.01504913720542
 20
-5.5
 30
0.0
  0
SEQEND
  5
42C
330
426
100
AcDbEntity
  8
Layer 1
 62
   179
420
  2301728
370
     9
  0
POLYLINE
  5
42D
330
1F
100
AcDbEntity
  8
Layer 1
 62
   179
420
  2301728
370
     9
100
AcDb2dPolyline
 66
     1
 10
0.0
 20
0.0
 30
0.0
  0
VERTEX
  5
42E
330
42D
100
AcDbEntity
  8
Layer 1
 62
   179
420
  2301728
370
     9
100
AcDbVertex
100
AcDb2dVertex
 10
23.01504913720542
 20
-7.75
 30
0.0
  0
VERTEX
  5
42F
330
42D
100
AcDbEntity
  8
Layer 1
 62
   179
420
  2301728
370
     9
100
AcDbVertex
100
AcDb2dVertex
 10
20.76504913720542
 20
-7.75
 30
0.0
  0
VERTEX
  5
430
330
42D
100
AcDbEntity
  8
Layer 1
 62
   179
420
  2301728
370
     9
100
AcDbVertex
100
AcDb2dVertex
 10
20.76504913720542
 20
-5.5
 30
0.0
  0
VERTEX
  5
431
330
42D
100
AcDbEntity
  8
Layer 1
 62
   179
420
  2301728
370
     9
100
AcDbVertex
100
AcDb2dVertex
 10
23.01504913720542
 20
-5.5
 30
0.0
  0
VERTEX
  5
432
330
42D
100
AcDbEntity
  8
Layer 1
 62
   179
420
  2301728
370
     9
100
AcDbVertex
100
AcDb2dVertex
 10
23.01504913720542
 20
-7.75
 30
0.0
  0
SEQEND
  5
433
330
42D
100
AcDbEntity
  8
Layer 1
 62
   179
420
  2301728
370
     9
  0
POLYLINE
  5
434
330
1F
100
AcDbEntity
  8
Layer 1
 62
   179
420
  2301728
370
     9
100
AcDb2dPolyline
 66
     1
 10
0.0
 20
0.0
 30
0.0
  0
VERTEX
  5
435
330
434
100
AcDbEntity
  8
Layer 1
 62
   179
420
  2301728
370
     9
100
AcDbVertex
100
AcDb2dVertex
 10
23.01504913720542
 20
-10.0
 30
0.0
  0
VERTEX
  5
436
330
434
100
AcDbEntity
  8
Layer 1
 62
   179
420
  2301728
370
     9
100
AcDbVertex
100
AcDb2dVertex
 10
20.76504913720542
 20
-10.0
 30
0.0
  0
VERTEX
  5
437
330
434
100
AcDbEntity
  8
Layer 1
 62
   179
420
  2301728
370
     9
100
AcDbVertex
100
AcDb2dVertex
 10
20.76504913720542
 20
-7.75
 30
0.0
  0
VERTEX
  5
438
330
434
100
AcDbEntity
  8
Layer 1
 62
   179
420
  2301728
370
     9
100
AcDbVertex
100
AcDb2dVertex
 10
23.01504913720542
 20
-7.75
 30
0.0
  0
VERTEX
  5
439
330
434
100
AcDbEntity
  8
Layer 1
 62
   179
420
  2301728
370
     9
100
AcDbVertex
100
AcDb2dVertex
 10
23.01504913720542
 20
-10.0
 30
0.0
  0
SEQEND
  5
43A
330
434
100
AcDbEntity
  8
Layer 1
 62
   179
420
  2301728
370
     9
  0
POLYLINE
  5
43B
330
1F
100
AcDbEntity
  8
Layer 1
 62
   179
420
  2301728
370
     9
100
AcDb2dPolyline
 66
     1
 10
0.0
 20
0.0
 30
0.0
  0
VERTEX
  5
43C
330
43B
100
AcDbEntity
  8
Layer 1
 62
   179
420
  2301728
370
     9
100
AcDbVertex
100
AcDb2dVertex
 10
25.26504913720542
 20
-3.25
 30
0.0
  0
VERTEX
  5
43D
330
43B
100
AcDbEntity
  8
Layer 1
 62
   179
420
  2301728
370
     9
100
AcDbVertex
100
AcDb2dVertex
 10
23.01504913720542
 20
-3.25
 30
0.0
  0
VERTEX
  5
43E
330
43B
100
AcDbEntity
  8
Layer 1
 62
   179
420
  2301728
370
     9
100
AcDbVertex
100
AcDb2dVertex
 10
23.01504913720542
 20
-1.0
 30
0.0
  0
VERTEX
  5
43F
330
43B
100
AcDbEntity
  8
Layer 1
 62
   179
420
  2301728
370
     9
100
AcDbVertex
100
AcDb2dVertex
 10
25.26504913720542
 20
-1.0
 30
0.0
  0
VERTEX
  5
440
330
43B
100
AcDbEntity
  8
Layer 1
 62
   179
420
  2301728
370
     9
100
AcDbVertex
100
AcDb2dVertex
 10
25.26504913720542
 20
-3.25
 30
0.0
  0
SEQEND
  5
441
330
43B
100
AcDbEntity
  8
Layer 1
 62
   179
420
  2301728
370
     9
  0
POLYLINE
  5
442
330
1F
100
AcDbEntity
  8
Layer 1
 62
   179
420
  2301728
370
     9
100
AcDb2dPolyline
 66
     1
 10
0.0
 20
0.0
 30
0.0
  0
VERTEX
  5
443
330
442
100
AcDbEntity
  8
Layer 1
 62
   179
420
  2301728
370
     9
100
AcDbVertex
100
AcDb2dVertex
 10
25.26504913720542
 20
-5.5
 30
0.0
  0
VERTEX
  5
444
330
442
100
AcDbEntity
  8
Layer 1
 62
   179
420
  2301728
370
     9
100
AcDbVertex
100
AcDb2dVertex
 10
23.01504913720542
 20
-5.5
 30
0.0
  0
VERTEX
  5
445
330
442
100
AcDbEntity
  8
Layer 1
 62
   179
420
  2301728
370
     9
100
AcDbVertex
100
AcDb2dVertex
 10
23.01504913720542
 20
-3.25
 30
0.0
  0
VERTEX
  5
446
330
442
100
AcDbEntity
  8
Layer 1
 62
   179
420
  2301728
370
     9
100
AcDbVertex
100
AcDb2dVertex
 10
25.26504913720542
 20
-3.25
 30
0.0
  0
VERTEX
  5
447
330
442
100
AcDbEntity
  8
Layer 1
 62
   179
420
  2301728
370
     9
100
AcDbVertex
100
AcDb2dVertex
 10
25.26504913720542
 20
-5.5
 30
0.0
  0
SEQEND
  5
448
330
442
100
AcDbEntity
  8
Layer 1
 62
   179
420
  2301728
370
     9
  0
POLYLINE
  5
449
330
1F
100
AcDbEntity
  8
Layer 1
 62
   179
420
  2301728
370
     9
100
AcDb2dPolyline
 66
     1
 10
0.0
 20
0.0
 30
0.0
  0
VERTEX
  5
44A
330
449
100
AcDbEntity
  8
Layer 1
 62
   179
420
  2301728
370
     9
100
AcDbVertex
100
AcDb2dVertex
 10
25.26504913720542
 20
-7.75
 30
0.0
  0
VERTEX
  5
44B
330
449
100
AcDbEntity
  8
Layer 1
 62
   179
420
  2301728
370
     9
100
AcDbVertex
100
AcDb2dVertex
 10
23.01504913720542
 20
-7.75
 30
0.0
  0
VERTEX
  5
44C
330
449
100
AcDbEntity
  8
Layer 1
 62
   179
420
  2301728
370
     9
100
AcDbVertex
100
AcDb2dVertex
 10
23.01504913720542
 20
-5.5
 30
0.0
  0
VERTEX
  5
44D
330
449
100
AcDbEntity
  8
Layer 1
 62
   179
420
  2301728
370
     9
100
AcDbVertex
100
AcDb2dVertex
 10
25.26504913720542
 20
-5.5
 30
0.0
  0
VERTEX
  5
44E
330
449
100
AcDbEntity
  8
Layer 1
 62
   179
420
  2301728
370
     9
100
AcDbVertex
100
AcDb2dVertex
 10
25.26504913720542
 20
-7.75
 30
0.0
  0
SEQEND
  5
44F
330
449
100
AcDbEntity
  8
Layer 1
 62
   179
420
  2301728
370
     9
  0
POLYLINE
  5
450
330
1F
100
AcDbEntity
  8
Layer 1
 62
   179
420
  2301728
370
     9
100
AcDb2dPolyline
 66
     1
 10
0.0
 20
0.0
 30
0.0
  0
VERTEX
  5
451
330
450
100
AcDbEntity
  8
Layer 1
 62
   179
420
  2301728
370
     9
100
AcDbVertex
100
AcDb2dVertex
 10
25.26504913720542
 20
-10.0
 30
0.0
  0
VERTEX
  5
452
330
450
100
AcDbEntity
  8
Layer 1
 62
   179
420
  2301728
370
     9
100
AcDbVertex
100
AcDb2dVertex
 10
23.01504913720542
 20
-10.0
 30
0.0
  0
VERTEX
  5
453
330
450
100
AcDbEntity
  8
Layer 1
 62
   179
420
  2301728
370
     9
100
AcDbVertex
100
AcDb2dVertex
 10
23.01504913720542
 20
-7.75
 30
0.0
  0
VERTEX
  5
454
330
450
100
AcDbEntity
  8
Layer 1
 62
   179
420
  2301728
370
     9
100
AcDbVertex
100
AcDb2dVertex
 10
25.26504913720542
 20
-7.75
 30
0.0
  0
VERTEX
  5
455
330
450
100
AcDbEntity
  8
Layer 1
 62
   179
420
  2301728
370
     9
100
AcDbVertex
100
AcDb2dVertex
 10
25.26504913720542
 20
-10.0
 30
0.0
  0
SEQEND
  5
456
330
450
100
AcDbEntity
  8
Layer 1
 62
   179
420
  2301728
370
     9
  0
POLYLINE
  5
457
330
1F
100
AcDbEntity
  8
Layer 1
 62
   179
420
  2301728
370
     9
100
AcDb2dPolyline
 66
     1
 10
0.0
 20
0.0
 30
0.0
  0
VERTEX
  5
458
330
457
100
AcDbEntity
  8
Layer 1
 62
   179
420
  2301728
370
     9
100
AcDbVertex
100
AcDb2dVertex
 10
32.04272460938083
 20
-10.0
 30
0.0
  0
VERTEX
  5
459
330
457
100
AcDbEntity
  8
Layer 1
 62
   179
420
  2301728
370
     9
100
AcDbVertex
100
AcDb2dVertex
 10
29.79272460938083
 20
-10.0
 30
0.0
  0
VERTEX
  5
45A
330
457
100
AcDbEntity
  8
Layer 1
 62
   179
420
  2301728
370
     9
100
AcDbVertex
100
AcDb2dVertex
 10
29.79272460938083
 20
-7.75
 30
0.0
  0
VERTEX
  5
45B
330
457
100
AcDbEntity
  8
Layer 1
 62
   179
420
  2301728
370
     9
100
AcDbVertex
100
AcDb2dVertex
 10
32.04272460938083
 20
-7.75
 30
0.0
  0
VERTEX
  5
45C
330
457
100
AcDbEntity
  8
Layer 1
 62
   179
420
  2301728
370
     9
100
AcDbVertex
100
AcDb2dVertex
 10
32.04272460938083
 20
-10.0
 30
0.0
  0
SEQEND
  5
45D
330
457
100
AcDbEntity
  8
Layer 1
 62
   179
420
  2301728
370
     9
  0
POLYLINE
  5
45E
330
1F
100
AcDbEntity
  8
Layer 1
 62
   179
420
  2301728
370
     9
100
AcDb2dPolyline
 66
     1
 10
0.0
 20
0.0
 30
0.0
  0
VERTEX
  5
45F
330
45E
100
AcDbEntity
  8
Layer 1
 62
   179
420
  2301728
370
     9
100
AcDbVertex
100
AcDb2dVertex
 10
34.29272460938083
 20
-10.0
 30
0.0
  0
VERTEX
  5
460
330
45E
100
AcDbEntity
  8
Layer 1
 62
   179
420
  2301728
370
     9
100
AcDbVertex
100
AcDb2dVertex
 10
32.04272460938083
 20
-10.0
 30
0.0
  0
VERTEX
  5
461
330
45E
100
AcDbEntity
  8
Layer 1
 62
   179
420
  2301728
370
     9
100
AcDbVertex
100
AcDb2dVertex
 10
32.04272460938083
 20
-7.75
 30
0.0
  0
VERTEX
  5
462
330
45E
100
AcDbEntity
  8
Layer 1
 62
   179
420
  2301728
370
     9
100
AcDbVertex
100
AcDb2dVertex
 10
34.29272460938083
 20
-7.75
 30
0.0
  0
VERTEX
  5
463
330
45E
100
AcDbEntity
  8
Layer 1
 62
   179
420
  2301728
370
     9
100
AcDbVertex
100
AcDb2dVertex
 10
34.29272460938083
 20
-10.0
 30
0.0
  0
SEQEND
  5
464
330
45E
100
AcDbEntity
  8
Layer 1
 62
   179
420
  2301728
370
     9
  0
ENDSEC
  0
SECTION
  2
OBJECTS
  0
DICTIONARY
  5
C
330
0
100
AcDbDictionary
281
     1
  3
ACAD_GROUP
350
D
  3
ACAD_LAYOUT
350
1A
  3
ACAD_MATERIAL
350
3B
  3
ACAD_MLEADERSTYLE
350
466
  3
ACAD_MLINESTYLE
350
17
  3
ACAD_PLOTSETTINGS
350
19
  3
ACAD_PLOTSTYLENAME
350
E
  3
ACAD_TABLESTYLE
350
465
  3
ACAD_VISUALSTYLE
350
2A
  0
SUN
  5
3F
330
29
100
AcDbSun
 90
        1
290
     0
 63
     7
421
 16777215
 40
1.0
291
     1
 91
  2455826
 92
 54000000
292
     0
 70
     2
 71
   256
280
     1
  0
DICTIONARY
  5
D
102
{ACAD_REACTORS
330
C
102
}
330
C
100
AcDbDictionary
281
     1
  0
DICTIONARY
  5
1A
102
{ACAD_REACTORS
330
C
102
}
330
C
100
AcDbDictionary
281
     1
  3
Layout1
350
1E
  3
Layout2
350
26
  3
Model
350
22
  0
DICTIONARY
  5
3B
102
{ACAD_REACTORS
330
C
102
}
330
C
100
AcDbDictionary
281
     1
  3
ByBlock
350
3D
  3
ByLayer
350
3C
  3
Global
350
3E
  0
DICTIONARY
  5
466
102
{ACAD_REACTORS
330
C
102
}
330
C
100
AcDbDictionary
281
     1
  0
DICTIONARY
  5
17
102
{ACAD_REACTORS
330
C
102
}
330
C
100
AcDbDictionary
281
     1
  3
Standard
350
18
  0
DICTIONARY
  5
19
102
{ACAD_REACTORS
330
C
102
}
330
C
100
AcDbDictionary
281
     1
  0
ACDBDICTIONARYWDFLT
  5
E
102
{ACAD_REACTORS
330
C
102
}
330
C
100
AcDbDictionary
281
     1
  3
Normal
350
F
100
AcDbDictionaryWithDefault
340
F
  0
DICTIONARY
  5
465
102
{ACAD_REACTORS
330
C
102
}
330
C
100
AcDbDictionary
281
     1
  0
DICTIONARY
  5
2A
102
{ACAD_REACTORS
330
C
102
}
330
C
100
AcDbDictionary
281
     1
  3
2dWireframe
350
2F
  3
3D Hidden
350
31
  3
3dWireframe
350
30
  3
Basic
350
32
  3
Brighten
350
36
  3
ColorChange
350
3A
  3
Conceptual
350
34
  3
Dim
350
35
  3
Facepattern
350
39
  3
Flat
350
2B
  3
FlatWithEdges
350
2C
  3
Gouraud
350
2D
  3
GouraudWithEdges
350
2E
  3
Linepattern
350
38
  3
Realistic
350
33
  3
Thicken
350
37
  0
LAYOUT
  5
1E
102
{ACAD_REACTORS
330
1A
102
}
330
1A
100
AcDbPlotSettings
  1

  2
none_device
  4

  6

 40
0.0
 41
0.0
 42
0.0
 43
0.0
 44
0.0
 45
0.0
 46
0.0
 47
0.0
 48
0.0
 49
0.0
140
0.0
141
0.0
142
1.0
143
1.0
 70
   688
 72
     0
 73
     0
 74
     5
  7

 75
    16
 76
     0
 77
     2
 78
   300
147
1.0
148
0.0
149
0.0
100
AcDbLayout
  1
Layout1
 70
     1
 71
     1
 10
0.0
 20
0.0
 11
12.0
 21
9.0
 12
0.0
 22
0.0
 32
0.0
 14
1.000000000000000E+20
 24
1.000000000000000E+20
 34
1.000000000000000E+20
 15
-1.000000000000000E+20
 25
-1.000000000000000E+20
 35
-1.000000000000000E+20
146
0.0
 13
0.0
 23
0.0
 33
0.0
 16
1.0
 26
0.0
 36
0.0
 17
0.0
 27
1.0
 37
0.0
 76
     0
330
1B
  0
LAYOUT
  5
26
102
{ACAD_REACTORS
330
1A
102
}
330
1A
100
AcDbPlotSettings
  1

  2
none_device
  4

  6

 40
0.0
 41
0.0
 42
0.0
 43
0.0
 44
0.0
 45
0.0
 46
0.0
 47
0.0
 48
0.0
 49
0.0
140
0.0
141
0.0
142
1.0
143
1.0
 70
   688
 72
     0
 73
     0
 74
     5
  7

 75
    16
 76
     0
 77
     2
 78
   300
147
1.0
148
0.0
149
0.0
100
AcDbLayout
  1
Layout2
 70
     1
 71
     2
 10
0.0
 20
0.0
 11
0.0
 21
0.0
 12
0.0
 22
0.0
 32
0.0
 14
0.0
 24
0.0
 34
0.0
 15
0.0
 25
0.0
 35
0.0
146
0.0
 13
0.0
 23
0.0
 33
0.0
 16
1.0
 26
0.0
 36
0.0
 17
0.0
 27
1.0
 37
0.0
 76
     0
330
23
  0
LAYOUT
  5
22
102
{ACAD_REACTORS
330
1A
102
}
330
1A
100
AcDbPlotSettings
  1

  2
none_device
  4

  6

 40
0.0
 41
0.0
 42
0.0
 43
0.0
 44
0.0
 45
0.0
 46
0.0
 47
0.0
 48
0.0
 49
0.0
140
0.0
141
0.0
142
1.0
143
1.0
 70
  1712
 72
     0
 73
     0
 74
     0
  7

 75
     0
 76
     0
 77
     2
 78
   300
147
1.0
148
0.0
149
0.0
100
AcDbLayout
  1
Model
 70
     1
 71
     0
 10
0.0
 20
0.0
 11
12.0
 21
9.0
 12
0.0
 22
0.0
 32
0.0
 14
1.000000000000000E+20
 24
1.000000000000000E+20
 34
1.000000000000000E+20
 15
-1.000000000000000E+20
 25
-1.000000000000000E+20
 35
-1.000000000000000E+20
146
0.0
 13
0.0
 23
0.0
 33
0.0
 16
1.0
 26
0.0
 36
0.0
 17
0.0
 27
1.0
 37
0.0
 76
     0
330
1F
331
29
  0
MATERIAL
  5
3D
102
{ACAD_REACTORS
330
3B
102
}
330
3B
100
AcDbMaterial
  1
ByBlock
 72
     1
 94
      127
  0
MATERIAL
  5
3C
102
{ACAD_REACTORS
330
3B
102
}
330
3B
100
AcDbMaterial
  1
ByLayer
 72
     1
 94
      127
  0
MATERIAL
  5
3E
102
{ACAD_REACTORS
330
3B
102
}
330
3B
100
AcDbMaterial
  1
Global
 72
     1
 94
      127
  0
MLINESTYLE
  5
18
102
{ACAD_REACTORS
330
17
102
}
330
17
100
AcDbMlineStyle
  2
Standard
 70
     0
  3

 62
   256
 51
90.0
 52
90.0
 71
     2
 49
0.5
 62
   256
  6
BYLAYER
 49
-0.5
 62
   256
  6
BYLAYER
  0
ACDBPLACEHOLDER
  5
F
102
{ACAD_REACTORS
330
E
102
}
330
E
  0
VISUALSTYLE
  5
2F
102
{ACAD_REACTORS
330
2A
102
}
330
2A
100
AcDbVisualStyle
  2
2dWireframe
 70
     4
177
     2
291
     0
 71
     0
176
     1
 72
     2
176
     1
 73
     0
176
     1
 90
        0
176
     1
 40
-0.6
176
     1
 41
-30.0
176
     1
 62
     5
 63
     7
421
 16777215
176
     1
 74
     1
176
     1
 91
        4
176
     1
 64
     7
176
     1
 65
   257
176
     1
 75
     1
176
     1
175
     1
176
     1
 42
1.0
176
     1
 92
        0
176
     1
 66
   257
176
     1
 43
1.0
176
     1
 76
     1
176
     1
 77
     6
176
     1
 78
     2
176
     1
 67
     7
176
     1
 79
     5
176
     1
170
     0
176
     1
171
     0
176
     1
290
     0
176
     1
 93
        1
176
     1
 44
0.0
176
     1
173
     0
176
     1
  0
VISUALSTYLE
  5
31
102
{ACAD_REACTORS
330
2A
102
}
330
2A
100
AcDbVisualStyle
  2
3D Hidden
 70
     6
177
     2
291
     0
 71
     1
176
     1
 72
     2
176
     1
 73
     2
176
     1
 90
        0
176
     1
 40
-0.6
176
     1
 41
-30.0
176
     1
 62
     5
 63
     7
421
 16777215
176
     1
 74
     2
176
     1
 91
        2
176
     1
 64
     7
176
     1
 65
   257
176
     1
 75
     2
176
     1
175
     1
176
     1
 42
40.0
176
     1
 92
        0
176
     1
 66
   257
176
     1
 43
1.0
176
     1
 76
     1
176
     1
 77
     6
176
     1
 78
     2
176
     1
 67
     7
176
     1
 79
     3
176
     1
170
     0
176
     1
171
     0
176
     1
290
     0
176
     1
 93
        1
176
     1
 44
0.0
176
     1
173
     0
176
     1
  0
VISUALSTYLE
  5
30
102
{ACAD_REACTORS
330
2A
102
}
330
2A
100
AcDbVisualStyle
  2
3dWireframe
 70
     5
177
     2
291
     0
 71
     0
176
     1
 72
     2
176
     1
 73
     0
176
     1
 90
        0
176
     1
 40
-0.6
176
     1
 41
-30.0
176
     1
 62
     5
 63
     7
421
 16777215
176
     1
 74
     1
176
     1
 91
        4
176
     1
 64
     7
176
     1
 65
   257
176
     1
 75
     1
176
     1
175
     1
176
     1
 42
1.0
176
     1
 92
        0
176
     1
 66
   257
176
     1
 43
1.0
176
     1
 76
     1
176
     1
 77
     6
176
     1
 78
     2
176
     1
 67
     7
176
     1
 79
     5
176
     1
170
     0
176
     1
171
     0
176
     1
290
     0
176
     1
 93
        1
176
     1
 44
0.0
176
     1
173
     0
176
     1
  0
VISUALSTYLE
  5
32
102
{ACAD_REACTORS
330
2A
102
}
330
2A
100
AcDbVisualStyle
  2
Basic
 70
     7
177
     2
291
     1
 71
     1
176
     1
 72
     0
176
     1
 73
     1
176
     1
 90
        0
176
     1
 40
-0.6
176
     1
 41
-30.0
176
     1
 62
     5
 63
     7
421
 16777215
176
     1
 74
     0
176
     1
 91
        4
176
     1
 64
     7
176
     1
 65
   257
176
     1
 75
     1
176
     1
175
     1
176
     1
 42
1.0
176
     1
 92
        8
176
     1
 66
     7
176
     1
 43
1.0
176
     1
 76
     1
176
     1
 77
     6
176
     1
 78
     2
176
     1
 67
     7
176
     1
 79
     5
176
     1
170
     0
176
     1
171
     0
176
     1
290
     0
176
     1
 93
        1
176
     1
 44
0.0
176
     1
173
     0
176
     1
  0
VISUALSTYLE
  5
36
102
{ACAD_REACTORS
330
2A
102
}
330
2A
100
AcDbVisualStyle
  2
Brighten
 70
    12
177
     2
291
     1
 71
     2
176
     1
 72
     2
176
     1
 73
     0
176
     1
 90
        0
176
     1
 40
-0.6
176
     1
 41
-30.0
176
     1
 62
     5
 63
     7
421
 16777215
176
     1
 74
     1
176
     1
 91
        4
176
     1
 64
     7
176
     1
 65
   257
176
     1
 75
     1
176
     1
175
     1
176
     1
 42
1.0
176
     1
 92
        8
176
     1
 66
     7
176
     1
 43
1.0
176
     1
 76
     1
176
     1
 77
     6
176
     1
 78
     2
176
     1
 67
     7
176
     1
 79
     5
176
     1
170
     0
176
     1
171
     0
176
     1
290
     0
176
     1
 93
        1
176
     1
 44
50.0
176
     1
173
     0
176
     1
  0
VISUALSTYLE
  5
3A
102
{ACAD_REACTORS
330
2A
102
}
330
2A
100
AcDbVisualStyle
  2
ColorChange
 70
    16
177
     2
291
     1
 71
     2
176
     1
 72
     2
176
     1
 73
     3
176
     1
 90
        0
176
     1
 40
-0.6
176
     1
 41
-30.0
176
     1
 62
     5
 63
     8
421
  8421504
176
     1
 74
     1
176
     1
 91
        4
176
     1
 64
     7
176
     1
 65
   257
176
     1
 75
     1
176
     1
175
     1
176
     1
 42
1.0
176
     1
 92
        8
176
     1
 66
     8
424
  8421504
176
     1
 43
1.0
176
     1
 76
     1
176
     1
 77
     6
176
     1
 78
     2
176
     1
 67
     7
176
     1
 79
     5
176
     1
170
     0
176
     1
171
     0
176
     1
290
     0
176
     1
 93
        1
176
     1
 44
0.0
176
     1
173
     0
176
     1
  0
VISUALSTYLE
  5
34
102
{ACAD_REACTORS
330
2A
102
}
330
2A
100
AcDbVisualStyle
  2
Conceptual
 70
     9
177
     2
291
     0
 71
     3
176
     1
 72
     2
176
     1
 73
     0
176
     1
 90
        0
176
     1
 40
-0.6
176
     1
 41
-30.0
176
     1
 62
     5
 63
     7
421
 16777215
176
     1
 74
     2
176
     1
 91
        2
176
     1
 64
     7
176
     1
 65
   257
176
     1
 75
     1
176
     1
175
     1
176
     1
 42
40.0
176
     1
 92
        8
176
     1
 66
     7
176
     1
 43
1.0
176
     1
 76
     1
176
     1
 77
     6
176
     1
 78
     2
176
     1
 67
     7
176
     1
 79
     3
176
     1
170
     0
176
     1
171
     0
176
     1
290
     0
176
     1
 93
        1
176
     1
 44
0.0
176
     1
173
     0
176
     1
  0
VISUALSTYLE
  5
35
102
{ACAD_REACTORS
330
2A
102
}
330
2A
100
AcDbVisualStyle
  2
Dim
 70
    11
177
     2
291
     1
 71
     2
176
     1
 72
     2
176
     1
 73
     0
176
     1
 90
        0
176
     1
 40
-0.6
176
     1
 41
-30.0
176
     1
 62
     5
 63
     7
421
 16777215
176
     1
 74
     1
176
     1
 91
        4
176
     1
 64
     7
176
     1
 65
   257
176
     1
 75
     1
176
     1
175
     1
176
     1
 42
1.0
176
     1
 92
        8
176
     1
 66
     7
176
     1
 43
1.0
176
     1
 76
     1
176
     1
 77
     6
176
     1
 78
     2
176
     1
 67
     7
176
     1
 79
     5
176
     1
170
     0
176
     1
171
     0
176
     1
290
     0
176
     1
 93
        1
176
     1
 44
-50.0
176
     1
173
     0
176
     1
  0
VISUALSTYLE
  5
39
102
{ACAD_REACTORS
330
2A
102
}
330
2A
100
AcDbVisualStyle
  2
Facepattern
 70
    15
177
     2
291
     1
 71
     2
176
     1
 72
     2
176
     1
 73
     0
176
     1
 90
        0
176
     1
 40
-0.6
176
     1
 41
-30.0
176
     1
 62
     5
 63
     7
421
 16777215
176
     1
 74
     1
176
     1
 91
        4
176
     1
 64
     7
176
     1
 65
   257
176
     1
 75
     1
176
     1
175
     1
176
     1
 42
1.0
176
     1
 92
        8
176
     1
 66
     7
176
     1
 43
1.0
176
     1
 76
     1
176
     1
 77
     6
176
     1
 78
     2
176
     1
 67
     7
176
     1
 79
     5
176
     1
170
     0
176
     1
171
     0
176
     1
290
     0
176
     1
 93
        1
176
     1
 44
0.0
176
     1
173
     0
176
     1
  0
VISUALSTYLE
  5
2B
102
{ACAD_REACTORS
330
2A
102
}
330
2A
100
AcDbVisualStyle
  2
Flat
 70
     0
177
     2
291
     1
 71
     2
176
     1
 72
     1
176
     1
 73
     1
176
     1
 90
        2
176
     1
 40
-0.6
176
     1
 41
30.0
176
     1
 62
     5
 63
     7
421
 16777215
176
     1
 74
     0
176
     1
 91
        4
176
     1
 64
     7
176
     1
 65
   257
176
     1
 75
     1
176
     1
175
     1
176
     1
 42
1.0
176
     1
 92
        8
176
     1
 66
     7
176
     1
 43
1.0
176
     1
 76
     1
176
     1
 77
     6
176
     1
 78
     2
176
     1
 67
     7
176
     1
 79
     5
176
     1
170
     0
176
     1
171
     0
176
     1
290
     0
176
     1
 93
       13
176
     1
 44
0.0
176
     1
173
     0
176
     1
  0
VISUALSTYLE
  5
2C
102
{ACAD_REACTORS
330
2A
102
}
330
2A
100
AcDbVisualStyle
  2
FlatWithEdges
 70
     1
177
     2
291
     1
 71
     2
176
     1
 72
     1
176
     1
 73
     1
176
     1
 90
        2
176
     1
 40
-0.6
176
     1
 41
30.0
176
     1
 62
     5
 63
     7
421
 16777215
176
     1
 74
     1
176
     1
 91
        4
176
     1
 64
     7
176
     1
 65
   257
176
     1
 75
     1
176
     1
175
     1
176
     1
 42
1.0
176
     1
 92
        0
176
     1
 66
   257
176
     1
 43
1.0
176
     1
 76
     1
176
     1
 77
     6
176
     1
 78
     2
176
     1
 67
     7
176
     1
 79
     5
176
     1
170
     0
176
     1
171
     0
176
     1
290
     0
176
     1
 93
       13
176
     1
 44
0.0
176
     1
173
     0
176
     1
  0
VISUALSTYLE
  5
2D
102
{ACAD_REACTORS
330
2A
102
}
330
2A
100
AcDbVisualStyle
  2
Gouraud
 70
     2
177
     2
291
     1
 71
     2
176
     1
 72
     2
176
     1
 73
     1
176
     1
 90
        2
176
     1
 40
-0.6
176
     1
 41
30.0
176
     1
 62
     5
 63
     7
421
 16777215
176
     1
 74
     0
176
     1
 91
        4
176
     1
 64
     7
176
     1
 65
   257
176
     1
 75
     1
176
     1
175
     1
176
     1
 42
1.0
176
     1
 92
        0
176
     1
 66
     7
176
     1
 43
1.0
176
     1
 76
     1
176
     1
 77
     6
176
     1
 78
     2
176
     1
 67
     7
176
     1
 79
     5
176
     1
170
     0
176
     1
171
     0
176
     1
290
     0
176
     1
 93
       13
176
     1
 44
0.0
176
     1
173
     0
176
     1
  0
VISUALSTYLE
  5
2E
102
{ACAD_REACTORS
330
2A
102
}
330
2A
100
AcDbVisualStyle
  2
GouraudWithEdges
 70
     3
177
     2
291
     1
 71
     2
176
     1
 72
     2
176
     1
 73
     1
176
     1
 90
        2
176
     1
 40
-0.6
176
     1
 41
30.0
176
     1
 62
     5
 63
     7
421
 16777215
176
     1
 74
     1
176
     1
 91
        4
176
     1
 64
     7
176
     1
 65
   257
176
     1
 75
     1
176
     1
175
     1
176
     1
 42
1.0
176
     1
 92
        0
176
     1
 66
   257
176
     1
 43
1.0
176
     1
 76
     1
176
     1
 77
     6
176
     1
 78
     2
176
     1
 67
     7
176
     1
 79
     5
176
     1
170
     0
176
     1
171
     0
176
     1
290
     0
176
     1
 93
       13
176
     1
 44
0.0
176
     1
173
     0
176
     1
  0
VISUALSTYLE
  5
38
102
{ACAD_REACTORS
330
2A
102
}
330
2A
100
AcDbVisualStyle
  2
Linepattern
 70
    14
177
     2
291
     1
 71
     2
176
     1
 72
     2
176
     1
 73
     0
176
     1
 90
        0
176
     1
 40
-0.6
176
     1
 41
-30.0
176
     1
 62
     5
 63
     7
421
 16777215
176
     1
 74
     1
176
     1
 91
        4
176
     1
 64
     7
176
     1
 65
   257
176
     1
 75
     7
176
     1
175
     7
176
     1
 42
1.0
176
     1
 92
        8
176
     1
 66
     7
176
     1
 43
1.0
176
     1
 76
     1
176
     1
 77
     6
176
     1
 78
     2
176
     1
 67
     7
176
     1
 79
     5
176
     1
170
     0
176
     1
171
     0
176
     1
290
     0
176
     1
 93
        1
176
     1
 44
0.0
176
     1
173
     0
176
     1
  0
VISUALSTYLE
  5
33
102
{ACAD_REACTORS
330
2A
102
}
330
2A
100
AcDbVisualStyle
  2
Realistic
 70
     8
177
     2
291
     0
 71
     2
176
     1
 72
     2
176
     1
 73
     0
176
     1
 90
        0
176
     1
 40
-0.6
176
     1
 41
-30.0
176
     1
 62
     5
 63
     7
421
 16777215
176
     1
 74
     1
176
     1
 91
        0
176
     1
 64
     7
176
     1
 65
   257
176
     1
 75
     1
176
     1
175
     1
176
     1
 42
1.0
176
     1
 92
        8
176
     1
 66
     8
424
  7895160
176
     1
 43
1.0
176
     1
 76
     1
176
     1
 77
     6
176
     1
 78
     2
176
     1
 67
     7
176
     1
 79
     5
176
     1
170
     0
176
     1
171
     0
176
     1
290
     0
176
     1
 93
       13
176
     1
 44
0.0
176
     1
173
     0
176
     1
  0
VISUALSTYLE
  5
37
102
{ACAD_REACTORS
330
2A
102
}
330
2A
100
AcDbVisualStyle
  2
Thicken
 70
    13
177
     2
291
     1
 71
     2
176
     1
 72
     2
176
     1
 73
     0
176
     1
 90
        0
176
     1
 40
-0.6
176
     1
 41
-30.0
176
     1
 62
     5
 63
     7
421
 16777215
176
     1
 74
     1
176
     1
 91
        4
176
     1
 64
     7
176
     1
 65
   257
176
     1
 75
     1
176
     1
175
     1
176
     1
 42
1.0
176
     1
 92
       12
176
     1
 66
     7
176
     1
 43
1.0
176
     1
 76
     1
176
     1
 77
     6
176
     1
 78
     2
176
     1
 67
     7
176
     1
 79
     5
176
     1
170
     0
176
     1
171
     0
176
     1
290
     0
176
     1
 93
        1
176
     1
 44
0.0
176
     1
173
     0
176
     1
  0
ENDSEC
  0
EOF
