  0
SECTION
  2
HEADER
  9
$ACADVER
  1
AC1024
  9
$ACADMAINTVER
 70
     6
  9
$DWGCODEPAGE
  3
UNDEFINED
  9
$INSBASE
 10
0.0
 20
0.0
 30
0.0
  9
$EXTMIN
 10
1.000000000000000E+20
 20
1.000000000000000E+20
 30
1.000000000000000E+20
  9
$EXTMAX
 10
-1.000000000000000E+20
 20
-1.000000000000000E+20
 30
-1.000000000000000E+20
  9
$LIMMIN
 10
0.0
 20
0.0
  9
$LIMMAX
 10
12.0
 20
9.0
  9
$ORTHOMODE
 70
     0
  9
$REGENMODE
 70
     1
  9
$FILLMODE
 70
     1
  9
$QTEXTMODE
 70
     0
  9
$MIRRTEXT
 70
     1
  9
$LTSCALE
 40
1.0
  9
$ATTMODE
 70
     1
  9
$TEXTSIZE
 40
0.2
  9
$TRACEWID
 40
0.05
  9
$TEXTSTYLE
  7
Standard
  9
$CLAYER
  8
0
  9
$CELTYPE
  6
ByLayer
  9
$CECOLOR
 62
   256
  9
$CELTSCALE
 40
1.0
  9
$DISPSILH
 70
     0
  9
$DIMSCALE
 40
1.0
  9
$DIMASZ
 40
0.18
  9
$DIMEXO
 40
0.0625
  9
$DIMDLI
 40
0.38
  9
$DIMRND
 40
0.0
  9
$DIMDLE
 40
0.0
  9
$DIMEXE
 40
0.18
  9
$DIMTP
 40
0.0
  9
$DIMTM
 40
0.0
  9
$DIMTXT
 40
0.18
  9
$DIMCEN
 40
0.09
  9
$DIMTSZ
 40
0.0
  9
$DIMTOL
 70
     0
  9
$DIMLIM
 70
     0
  9
$DIMTIH
 70
     1
  9
$DIMTOH
 70
     1
  9
$DIMSE1
 70
     0
  9
$DIMSE2
 70
     0
  9
$DIMTAD
 70
     0
  9
$DIMZIN
 70
     0
  9
$DIMBLK
  1

  9
$DIMASO
 70
     1
  9
$DIMSHO
 70
     1
  9
$DIMPOST
  1

  9
$DIMAPOST
  1

  9
$DIMALT
 70
     0
  9
$DIMALTD
 70
     2
  9
$DIMALTF
 40
25.4
  9
$DIMLFAC
 40
1.0
  9
$DIMTOFL
 70
     0
  9
$DIMTVP
 40
0.0
  9
$DIMTIX
 70
     0
  9
$DIMSOXD
 70
     0
  9
$DIMSAH
 70
     0
  9
$DIMBLK1
  1

  9
$DIMBLK2
  1

  9
$DIMSTYLE
  2
Standard
  9
$DIMCLRD
 70
     0
  9
$DIMCLRE
 70
     0
  9
$DIMCLRT
 70
     0
  9
$DIMTFAC
 40
1.0
  9
$DIMGAP
 40
0.09
  9
$DIMJUST
 70
     0
  9
$DIMSD1
 70
     0
  9
$DIMSD2
 70
     0
  9
$DIMTOLJ
 70
     1
  9
$DIMTZIN
 70
     0
  9
$DIMALTZ
 70
     0
  9
$DIMALTTZ
 70
     0
  9
$DIMUPT
 70
     0
  9
$DIMDEC
 70
     4
  9
$DIMTDEC
 70
     4
  9
$DIMALTU
 70
     2
  9
$DIMALTTD
 70
     2
  9
$DIMTXSTY
  7
Standard
  9
$DIMAUNIT
 70
     0
  9
$DIMADEC
 70
     0
  9
$DIMALTRND
 40
0.0
  9
$DIMAZIN
 70
     0
  9
$DIMDSEP
 70
    46
  9
$DIMATFIT
 70
     3
  9
$DIMFRAC
 70
     0
  9
$DIMLDRBLK
  1

  9
$DIMLUNIT
 70
     2
  9
$DIMLWD
 70
    -2
  9
$DIMLWE
 70
    -2
  9
$DIMTMOVE
 70
     0
  9
$DIMFXL
 40
1.0
  9
$DIMFXLON
 70
     0
  9
$DIMJOGANG
 40
0.7853981633974483
  9
$DIMTFILL
 70
     0
  9
$DIMTFILLCLR
 70
     0
  9
$DIMARCSYM
 70
     0
  9
$DIMLTYPE
  6

  9
$DIMLTEX1
  6

  9
$DIMLTEX2
  6

  9
$DIMTXTDIRECTION
 70
     0
  9
$LUNITS
 70
     2
  9
$LUPREC
 70
     4
  9
$SKETCHINC
 40
0.1
  9
$FILLETRAD
 40
0.5
  9
$AUNITS
 70
     0
  9
$AUPREC
 70
     0
  9
$MENU
  1
.
  9
$ELEVATION
 40
0.0
  9
$PELEVATION
 40
0.0
  9
$THICKNESS
 40
0.0
  9
$LIMCHECK
 70
     0
  9
$CHAMFERA
 40
0.5
  9
$CHAMFERB
 40
0.5
  9
$CHAMFERC
 40
1.0
  9
$CHAMFERD
 40
0.0
  9
$SKPOLY
 70
     0
  9
$TDCREATE
 40
2458614.602719896
  9
$TDUCREATE
 40
2458614.936053241
  9
$TDUPDATE
 40
2458614.602719896
  9
$TDUUPDATE
 40
2458614.936053241
  9
$TDINDWG
 40
0.0000000116
  9
$TDUSRTIMER
 40
0.0000000116
  9
$USRTIMER
 70
     1
  9
$ANGBASE
 50
0.0
  9
$ANGDIR
 70
     0
  9
$PDMODE
 70
     0
  9
$PDSIZE
 40
0.0
  9
$PLINEWID
 40
0.0
  9
$SPLFRAME
 70
     0
  9
$SPLINETYPE
 70
     6
  9
$SPLINESEGS
 70
     8
  9
$HANDSEED
  5
62
  9
$SURFTAB1
 70
     6
  9
$SURFTAB2
 70
     6
  9
$SURFTYPE
 70
     6
  9
$SURFU
 70
     6
  9
$SURFV
 70
     6
  9
$UCSBASE
  2

  9
$UCSNAME
  2

  9
$UCSORG
 10
0.0
 20
0.0
 30
0.0
  9
$UCSXDIR
 10
1.0
 20
0.0
 30
0.0
  9
$UCSYDIR
 10
0.0
 20
1.0
 30
0.0
  9
$UCSORTHOREF
  2

  9
$UCSORTHOVIEW
 70
     0
  9
$UCSORGTOP
 10
0.0
 20
0.0
 30
0.0
  9
$UCSORGBOTTOM
 10
0.0
 20
0.0
 30
0.0
  9
$UCSORGLEFT
 10
0.0
 20
0.0
 30
0.0
  9
$UCSORGRIGHT
 10
0.0
 20
0.0
 30
0.0
  9
$UCSORGFRONT
 10
0.0
 20
0.0
 30
0.0
  9
$UCSORGBACK
 10
0.0
 20
0.0
 30
0.0
  9
$PUCSBASE
  2

  9
$PUCSNAME
  2

  9
$PUCSORG
 10
0.0
 20
0.0
 30
0.0
  9
$PUCSXDIR
 10
1.0
 20
0.0
 30
0.0
  9
$PUCSYDIR
 10
0.0
 20
1.0
 30
0.0
  9
$PUCSORTHOREF
  2

  9
$PUCSORTHOVIEW
 70
     0
  9
$PUCSORGTOP
 10
0.0
 20
0.0
 30
0.0
  9
$PUCSORGBOTTOM
 10
0.0
 20
0.0
 30
0.0
  9
$PUCSORGLEFT
 10
0.0
 20
0.0
 30
0.0
  9
$PUCSORGRIGHT
 10
0.0
 20
0.0
 30
0.0
  9
$PUCSORGFRONT
 10
0.0
 20
0.0
 30
0.0
  9
$PUCSORGBACK
 10
0.0
 20
0.0
 30
0.0
  9
$USERI1
 70
     0
  9
$USERI2
 70
     0
  9
$USERI3
 70
     0
  9
$USERI4
 70
     0
  9
$USERI5
 70
     0
  9
$USERR1
 40
0.0
  9
$USERR2
 40
0.0
  9
$USERR3
 40
0.0
  9
$USERR4
 40
0.0
  9
$USERR5
 40
0.0
  9
$WORLDVIEW
 70
     1
  9
$SHADEDGE
 70
     3
  9
$SHADEDIF
 70
    70
  9
$TILEMODE
 70
     1
  9
$MAXACTVP
 70
    64
  9
$PINSBASE
 10
0.0
 20
0.0
 30
0.0
  9
$PLIMCHECK
 70
     0
  9
$PEXTMIN
 10
1.000000000000000E+20
 20
1.000000000000000E+20
 30
1.000000000000000E+20
  9
$PEXTMAX
 10
-1.000000000000000E+20
 20
-1.000000000000000E+20
 30
-1.000000000000000E+20
  9
$PLIMMIN
 10
0.0
 20
0.0
  9
$PLIMMAX
 10
12.0
 20
9.0
  9
$UNITMODE
 70
     0
  9
$VISRETAIN
 70
     1
  9
$PLINEGEN
 70
     0
  9
$PSLTSCALE
 70
     1
  9
$TREEDEPTH
 70
  3020
  9
$CMLSTYLE
  2
Standard
  9
$CMLJUST
 70
     0
  9
$CMLSCALE
 40
1.0
  9
$PROXYGRAPHICS
 70
     1
  9
$MEASUREMENT
 70
     0
  9
$CELWEIGHT
370
    -1
  9
$ENDCAPS
280
     0
  9
$JOINSTYLE
280
     0
  9
$LWDISPLAY
290
     1
  9
$INSUNITS
 70
     1
  9
$HYPERLINKBASE
  1

  9
$STYLESHEET
  1

  9
$XEDIT
290
     1
  9
$CEPSNTYPE
380
     0
  9
$PSTYLEMODE
290
     1
  9
$FINGERPRINTGUID
  2
{688CDD80-83E7-B252-A0C7-E97E5D6245BC}
  9
$VERSIONGUID
  2
{FAEB1C32-E019-11D5-929B-00C0DF256EC4}
  9
$EXTNAMES
290
     1
  9
$PSVPSCALE
 40
0.0
  9
$OLESTARTUP
290
     0
  9
$SORTENTS
280
   127
  9
$INDEXCTL
280
     0
  9
$HIDETEXT
280
     1
  9
$XCLIPFRAME
280
     2
  9
$HALOGAP
280
     0
  9
$OBSCOLOR
 70
   257
  9
$OBSLTYPE
280
     0
  9
$INTERSECTIONDISPLAY
280
     0
  9
$INTERSECTIONCOLOR
 70
   257
  9
$DIMASSOC
280
     2
  9
$PROJECTNAME
  1

  9
$CAMERADISPLAY
290
     0
  9
$LENSLENGTH
 40
50.0
  9
$CAMERAHEIGHT
 40
0.0
  9
$STEPSPERSEC
 40
2.0
  9
$STEPSIZE
 40
6.0
  9
$3DDWFPREC
 40
2.0
  9
$PSOLWIDTH
 40
0.25
  9
$PSOLHEIGHT
 40
4.0
  9
$LOFTANG1
 40
1.570796326794897
  9
$LOFTANG2
 40
1.570796326794897
  9
$LOFTMAG1
 40
0.0
  9
$LOFTMAG2
 40
0.0
  9
$LOFTPARAM
 70
     7
  9
$LOFTNORMALS
280
     1
  9
$LATITUDE
 40
37.795
  9
$LONGITUDE
 40
-122.394
  9
$NORTHDIRECTION
 40
0.0
  9
$TIMEZONE
 70
 -8000
  9
$LIGHTGLYPHDISPLAY
280
     1
  9
$TILEMODELIGHTSYNCH
280
     1
  9
$CMATERIAL
347
3C
  9
$SOLIDHIST
280
     1
  9
$SHOWHIST
280
     1
  9
$DWFFRAME
280
     2
  9
$DGNFRAME
280
     2
  9
$REALWORLDSCALE
290
     1
  9
$INTERFERECOLOR
 62
   256
  9
$CSHADOW
280
     0
  9
$SHADOWPLANELOCATION
 40
0.0
  0
ENDSEC
  0
SECTION
  2
CLASSES
  0
CLASS
  1
ACDBDICTIONARYWDFLT
  2
AcDbDictionaryWithDefault
  3
ObjectDBX Classes
 90
        0
 91
        4
280
     0
281
     0
  0
CLASS
  1
VISUALSTYLE
  2
AcDbVisualStyle
  3
ObjectDBX Classes
 90
     4095
 91
        4
280
     0
281
     0
  0
CLASS
  1
MATERIAL
  2
AcDbMaterial
  3
ObjectDBX Classes
 90
     1153
 91
        4
280
     0
281
     0
  0
CLASS
  1
SUN
  2
AcDbSun
  3
SCENEOE
 90
     1024
 91
        4
280
     0
281
     0
  0
ENDSEC
  0
SECTION
  2
TABLES
  0
TABLE
  2
VPORT
  5
8
330
0
100
AcDbSymbolTable
 70
     1
  0
VPORT
  5
29
330
8
100
AcDbSymbolTableRecord
100
AcDbViewportTableRecord
  2
*Active
 70
     0
 10
0.0
 20
0.0
 11
1.0
 21
1.0
 12
0.0
 22
0.0
 13
0.0
 23
0.0
 14
0.5
 24
0.5
 15
0.5
 25
0.5
 16
0.0
 26
0.0
 36
1.0
 17
4.25
 27
-5.5
 37
0.0
 40
11.0
 41
0.7727272727272727
 42
50.0
 43
0.0
 44
0.0
 50
0.0
 51
0.0
 71
     0
 72
   100
 73
     1
 74
     3
 75
     0
 76
     0
 77
     0
 78
     0
281
     0
 65
     1
110
0.0
120
0.0
130
0.0
111
1.0
121
0.0
131
0.0
112
0.0
122
1.0
132
0.0
 79
     0
146
0.0
 60
     3
 61
     5
292
     1
282
     1
141
0.0
142
0.0
 63
   250
361
3F
  0
ENDTAB
  0
TABLE
  2
LTYPE
  5
5
330
0
100
AcDbSymbolTable
 70
     1
  0
LTYPE
  5
14
330
5
100
AcDbSymbolTableRecord
100
AcDbLinetypeTableRecord
  2
ByBlock
 70
     0
  3

 72
    65
 73
     0
 40
0.0
  0
LTYPE
  5
15
330
5
100
AcDbSymbolTableRecord
100
AcDbLinetypeTableRecord
  2
ByLayer
 70
     0
  3

 72
    65
 73
     0
 40
0.0
  0
LTYPE
  5
16
330
5
100
AcDbSymbolTableRecord
100
AcDbLinetypeTableRecord
  2
Continuous
 70
     0
  3
Solid line
 72
    65
 73
     0
 40
0.0
  0
ENDTAB
  0
TABLE
  2
LAYER
  5
2
330
0
100
AcDbSymbolTable
 70
     2
  0
LAYER
  5
10
330
2
100
AcDbSymbolTableRecord
100
AcDbLayerTableRecord
  2
0
 70
     0
 62
     7
  6
Continuous
370
    -3
390
F
347
3E
  0
LAYER
  5
40
330
2
100
AcDbSymbolTableRecord
100
AcDbLayerTableRecord
  2
Layer 1
 70
     0
 62
     7
  6
Continuous
370
    -3
390
F
347
3E
  0
ENDTAB
  0
TABLE
  2
STYLE
  5
3
330
0
100
AcDbSymbolTable
 70
     1
  0
STYLE
  5
11
330
3
100
AcDbSymbolTableRecord
100
AcDbTextStyleTableRecord
  2
Standard
 70
     0
 40
0.0
 41
1.0
 50
0.0
 71
     0
 42
0.2
  3
txt
  4

  0
ENDTAB
  0
TABLE
  2
VIEW
  5
6
330
0
100
AcDbSymbolTable
 70
     0
  0
ENDTAB
  0
TABLE
  2
UCS
  5
7
330
0
100
AcDbSymbolTable
 70
     0
  0
ENDTAB
  0
TABLE
  2
APPID
  5
9
330
0
100
AcDbSymbolTable
 70
     1
  0
APPID
  5
12
330
9
100
AcDbSymbolTableRecord
100
AcDbRegAppTableRecord
  2
ACAD
 70
     0
  0
ENDTAB
  0
TABLE
  2
DIMSTYLE
  5
A
330
0
100
AcDbSymbolTable
 70
     1
100
AcDbDimStyleTable
  0
DIMSTYLE
105
27
330
A
100
AcDbSymbolTableRecord
100
AcDbDimStyleTableRecord
  2
Standard
 70
     0
178
     0
340
11
  0
ENDTAB
  0
TABLE
  2
BLOCK_RECORD
  5
1
330
0
100
AcDbSymbolTable
 70
     1
  0
BLOCK_RECORD
  5
1F
330
1
100
AcDbSymbolTableRecord
100
AcDbBlockTableRecord
  2
*Model_Space
340
22
 70
     0
280
     1
281
     0
  0
BLOCK_RECORD
  5
1B
330
1
100
AcDbSymbolTableRecord
100
AcDbBlockTableRecord
  2
*Paper_Space
340
1E
 70
     0
280
     1
281
     0
  0
BLOCK_RECORD
  5
23
330
1
100
AcDbSymbolTableRecord
100
AcDbBlockTableRecord
  2
*Paper_Space0
340
26
 70
     0
280
     1
281
     0
  0
ENDTAB
  0
ENDSEC
  0
SECTION
  2
BLOCKS
  0
BLOCK
  5
20
330
1F
100
AcDbEntity
  8
0
100
AcDbBlockBegin
  2
*Model_Space
 70
     0
 10
0.0
 20
0.0
 30
0.0
  3
*Model_Space
  1

  0
ENDBLK
  5
21
330
1F
100
AcDbEntity
  8
0
100
AcDbBlockEnd
  0
BLOCK
  5
1C
330
1B
100
AcDbEntity
 67
     1
  8
0
100
AcDbBlockBegin
  2
*Paper_Space
 70
     0
 10
0.0
 20
0.0
 30
0.0
  3
*Paper_Space
  1

  0
ENDBLK
  5
1D
330
1B
100
AcDbEntity
 67
     1
  8
0
100
AcDbBlockEnd
  0
BLOCK
  5
24
330
23
100
AcDbEntity
  8
0
100
AcDbBlockBegin
  2
*Paper_Space0
 70
     0
 10
0.0
 20
0.0
 30
0.0
  3
*Paper_Space0
  1

  0
ENDBLK
  5
25
330
23
100
AcDbEntity
  8
0
100
AcDbBlockEnd
  0
ENDSEC
  0
SECTION
  2
ENTITIES
  0
SPLINE
  5
41
330
1F
100
AcDbEntity
  8
Layer 1
 62
     7
420
 16777215
370
     9
100
AcDbSpline
210
0.0
220
0.0
230
1.0
 70
    11
 71
     3
 72
   665
 73
   661
 74
     0
 42
0.0000000001
 43
0.0000000001
 12
1.0
 22
0.0
 32
0.0
 13
1.0
 23
0.0
 33
0.0
 40
0.0
 40
0.0
 40
0.0
 40
0.0
 40
1.0
 40
1.0
 40
1.0
 40
2.0
 40
2.0
 40
2.0
 40
3.0
 40
3.0
 40
3.0
 40
4.0
 40
4.0
 40
4.0
 40
5.0
 40
5.0
 40
5.0
 40
6.0
 40
6.0
 40
6.0
 40
7.0
 40
7.0
 40
7.0
 40
8.0
 40
8.0
 40
8.0
 40
9.0
 40
9.0
 40
9.0
 40
10.0
 40
10.0
 40
10.0
 40
11.0
 40
11.0
 40
11.0
 40
12.0
 40
12.0
 40
12.0
 40
13.0
 40
13.0
 40
13.0
 40
14.0
 40
14.0
 40
14.0
 40
15.0
 40
15.0
 40
15.0
 40
16.0
 40
16.0
 40
16.0
 40
17.0
 40
17.0
 40
17.0
 40
18.0
 40
18.0
 40
18.0
 40
19.0
 40
19.0
 40
19.0
 40
20.0
 40
20.0
 40
20.0
 40
21.0
 40
21.0
 40
21.0
 40
22.0
 40
22.0
 40
22.0
 40
23.0
 40
23.0
 40
23.0
 40
24.0
 40
24.0
 40
24.0
 40
25.0
 40
25.0
 40
25.0
 40
26.0
 40
26.0
 40
26.0
 40
27.0
 40
27.0
 40
27.0
 40
28.0
 40
28.0
 40
28.0
 40
29.0
 40
29.0
 40
29.0
 40
30.0
 40
30.0
 40
30.0
 40
31.0
 40
31.0
 40
31.0
 40
32.0
 40
32.0
 40
32.0
 40
33.0
 40
33.0
 40
33.0
 40
34.0
 40
34.0
 40
34.0
 40
35.0
 40
35.0
 40
35.0
 40
36.0
 40
36.0
 40
36.0
 40
37.0
 40
37.0
 40
37.0
 40
38.0
 40
38.0
 40
38.0
 40
39.0
 40
39.0
 40
39.0
 40
40.0
 40
40.0
 40
40.0
 40
41.0
 40
41.0
 40
41.0
 40
42.0
 40
42.0
 40
42.0
 40
43.0
 40
43.0
 40
43.0
 40
44.0
 40
44.0
 40
44.0
 40
45.0
 40
45.0
 40
45.0
 40
46.0
 40
46.0
 40
46.0
 40
47.0
 40
47.0
 40
47.0
 40
48.0
 40
48.0
 40
48.0
 40
49.0
 40
49.0
 40
49.0
 40
50.0
 40
50.0
 40
50.0
 40
51.0
 40
51.0
 40
51.0
 40
52.0
 40
52.0
 40
52.0
 40
53.0
 40
53.0
 40
53.0
 40
54.0
 40
54.0
 40
54.0
 40
55.0
 40
55.0
 40
55.0
 40
56.0
 40
56.0
 40
56.0
 40
57.0
 40
57.0
 40
57.0
 40
58.0
 40
58.0
 40
58.0
 40
59.0
 40
59.0
 40
59.0
 40
60.0
 40
60.0
 40
60.0
 40
61.0
 40
61.0
 40
61.0
 40
62.0
 40
62.0
 40
62.0
 40
63.0
 40
63.0
 40
63.0
 40
64.0
 40
64.0
 40
64.0
 40
65.0
 40
65.0
 40
65.0
 40
66.0
 40
66.0
 40
66.0
 40
67.0
 40
67.0
 40
67.0
 40
68.0
 40
68.0
 40
68.0
 40
69.0
 40
69.0
 40
69.0
 40
70.0
 40
70.0
 40
70.0
 40
71.0
 40
71.0
 40
71.0
 40
72.0
 40
72.0
 40
72.0
 40
73.0
 40
73.0
 40
73.0
 40
74.0
 40
74.0
 40
74.0
 40
75.0
 40
75.0
 40
75.0
 40
76.0
 40
76.0
 40
76.0
 40
77.0
 40
77.0
 40
77.0
 40
78.0
 40
78.0
 40
78.0
 40
79.0
 40
79.0
 40
79.0
 40
80.0
 40
80.0
 40
80.0
 40
81.0
 40
81.0
 40
81.0
 40
82.0
 40
82.0
 40
82.0
 40
83.0
 40
83.0
 40
83.0
 40
84.0
 40
84.0
 40
84.0
 40
85.0
 40
85.0
 40
85.0
 40
86.0
 40
86.0
 40
86.0
 40
87.0
 40
87.0
 40
87.0
 40
88.0
 40
88.0
 40
88.0
 40
89.0
 40
89.0
 40
89.0
 40
90.0
 40
90.0
 40
90.0
 40
91.0
 40
91.0
 40
91.0
 40
92.0
 40
92.0
 40
92.0
 40
93.0
 40
93.0
 40
93.0
 40
94.0
 40
94.0
 40
94.0
 40
95.0
 40
95.0
 40
95.0
 40
96.0
 40
96.0
 40
96.0
 40
97.0
 40
97.0
 40
97.0
 40
98.0
 40
98.0
 40
98.0
 40
99.0
 40
99.0
 40
99.0
 40
100.0
 40
100.0
 40
100.0
 40
101.0
 40
101.0
 40
101.0
 40
102.0
 40
102.0
 40
102.0
 40
103.0
 40
103.0
 40
103.0
 40
104.0
 40
104.0
 40
104.0
 40
105.0
 40
105.0
 40
105.0
 40
106.0
 40
106.0
 40
106.0
 40
107.0
 40
107.0
 40
107.0
 40
108.0
 40
108.0
 40
108.0
 40
109.0
 40
109.0
 40
109.0
 40
110.0
 40
110.0
 40
110.0
 40
111.0
 40
111.0
 40
111.0
 40
112.0
 40
112.0
 40
112.0
 40
113.0
 40
113.0
 40
113.0
 40
114.0
 40
114.0
 40
114.0
 40
115.0
 40
115.0
 40
115.0
 40
116.0
 40
116.0
 40
116.0
 40
117.0
 40
117.0
 40
117.0
 40
118.0
 40
118.0
 40
118.0
 40
119.0
 40
119.0
 40
119.0
 40
120.0
 40
120.0
 40
120.0
 40
121.0
 40
121.0
 40
121.0
 40
122.0
 40
122.0
 40
122.0
 40
123.0
 40
123.0
 40
123.0
 40
124.0
 40
124.0
 40
124.0
 40
125.0
 40
125.0
 40
125.0
 40
126.0
 40
126.0
 40
126.0
 40
127.0
 40
127.0
 40
127.0
 40
128.0
 40
128.0
 40
128.0
 40
129.0
 40
129.0
 40
129.0
 40
130.0
 40
130.0
 40
130.0
 40
131.0
 40
131.0
 40
131.0
 40
132.0
 40
132.0
 40
132.0
 40
133.0
 40
133.0
 40
133.0
 40
134.0
 40
134.0
 40
134.0
 40
135.0
 40
135.0
 40
135.0
 40
136.0
 40
136.0
 40
136.0
 40
137.0
 40
137.0
 40
137.0
 40
138.0
 40
138.0
 40
138.0
 40
139.0
 40
139.0
 40
139.0
 40
140.0
 40
140.0
 40
140.0
 40
141.0
 40
141.0
 40
141.0
 40
142.0
 40
142.0
 40
142.0
 40
143.0
 40
143.0
 40
143.0
 40
144.0
 40
144.0
 40
144.0
 40
145.0
 40
145.0
 40
145.0
 40
146.0
 40
146.0
 40
146.0
 40
147.0
 40
147.0
 40
147.0
 40
148.0
 40
148.0
 40
148.0
 40
149.0
 40
149.0
 40
149.0
 40
150.0
 40
150.0
 40
150.0
 40
151.0
 40
151.0
 40
151.0
 40
152.0
 40
152.0
 40
152.0
 40
153.0
 40
153.0
 40
153.0
 40
154.0
 40
154.0
 40
154.0
 40
155.0
 40
155.0
 40
155.0
 40
156.0
 40
156.0
 40
156.0
 40
157.0
 40
157.0
 40
157.0
 40
158.0
 40
158.0
 40
158.0
 40
159.0
 40
159.0
 40
159.0
 40
160.0
 40
160.0
 40
160.0
 40
161.0
 40
161.0
 40
161.0
 40
162.0
 40
162.0
 40
162.0
 40
163.0
 40
163.0
 40
163.0
 40
164.0
 40
164.0
 40
164.0
 40
165.0
 40
165.0
 40
165.0
 40
166.0
 40
166.0
 40
166.0
 40
167.0
 40
167.0
 40
167.0
 40
168.0
 40
168.0
 40
168.0
 40
169.0
 40
169.0
 40
169.0
 40
170.0
 40
170.0
 40
170.0
 40
171.0
 40
171.0
 40
171.0
 40
172.0
 40
172.0
 40
172.0
 40
173.0
 40
173.0
 40
173.0
 40
174.0
 40
174.0
 40
174.0
 40
175.0
 40
175.0
 40
175.0
 40
176.0
 40
176.0
 40
176.0
 40
177.0
 40
177.0
 40
177.0
 40
178.0
 40
178.0
 40
178.0
 40
179.0
 40
179.0
 40
179.0
 40
180.0
 40
180.0
 40
180.0
 40
181.0
 40
181.0
 40
181.0
 40
182.0
 40
182.0
 40
182.0
 40
183.0
 40
183.0
 40
183.0
 40
184.0
 40
184.0
 40
184.0
 40
185.0
 40
185.0
 40
185.0
 40
186.0
 40
186.0
 40
186.0
 40
187.0
 40
187.0
 40
187.0
 40
188.0
 40
188.0
 40
188.0
 40
189.0
 40
189.0
 40
189.0
 40
190.0
 40
190.0
 40
190.0
 40
191.0
 40
191.0
 40
191.0
 40
192.0
 40
192.0
 40
192.0
 40
193.0
 40
193.0
 40
193.0
 40
194.0
 40
194.0
 40
194.0
 40
195.0
 40
195.0
 40
195.0
 40
196.0
 40
196.0
 40
196.0
 40
197.0
 40
197.0
 40
197.0
 40
198.0
 40
198.0
 40
198.0
 40
199.0
 40
199.0
 40
199.0
 40
200.0
 40
200.0
 40
200.0
 40
201.0
 40
201.0
 40
201.0
 40
202.0
 40
202.0
 40
202.0
 40
203.0
 40
203.0
 40
203.0
 40
204.0
 40
204.0
 40
204.0
 40
205.0
 40
205.0
 40
205.0
 40
206.0
 40
206.0
 40
206.0
 40
207.0
 40
207.0
 40
207.0
 40
208.0
 40
208.0
 40
208.0
 40
209.0
 40
209.0
 40
209.0
 40
210.0
 40
210.0
 40
210.0
 40
211.0
 40
211.0
 40
211.0
 40
212.0
 40
212.0
 40
212.0
 40
213.0
 40
213.0
 40
213.0
 40
214.0
 40
214.0
 40
214.0
 40
215.0
 40
215.0
 40
215.0
 40
216.0
 40
216.0
 40
216.0
 40
217.0
 40
217.0
 40
217.0
 40
218.0
 40
218.0
 40
218.0
 40
219.0
 40
219.0
 40
219.0
 40
220.0
 40
220.0
 40
220.0
 40
220.0
 10
2.922850875540917
 20
-1.780531529419982
 30
0.0
 10
2.934302010307546
 20
-1.756203302330378
 30
0.0
 10
2.966429529641371
 20
-1.7240670881334
 30
0.0
 10
2.980123939100319
 20
-1.694487163702092
 30
0.0
 10
2.964777505643156
 20
-1.655090738776089
 30
0.0
 10
2.932745629803953
 20
-1.630858155181121
 30
0.0
 10
2.9113997407743
 20
-1.633823103514765
 30
0.0
 10
2.879393949524557
 20
-1.638257483720533
 30
0.0
 10
2.813252125553655
 20
-1.724545305606575
 30
0.0
 10
2.818095164327385
 20
-1.759463876011081
 30
0.0
 10
2.81876466878983
 20
-1.764315609647964
 30
0.0
 10
2.820277574977669
 20
-1.768063095664982
 30
0.0
 10
2.821920904112744
 20
-1.772775711491489
 30
0.0
 10
2.79664819751363
 20
-1.820872433855495
 30
0.0
 10
2.772750366149908
 20
-1.865415130907536
 30
0.0
 10
2.750286100347769
 20
-1.905615830674782
 30
0.0
 10
2.682275967657839
 20
-2.011160600719045
 30
0.0
 10
2.602544072585765
 20
-2.087415637389591
 30
0.0
 10
2.508827576997191
 20
-2.096989768574013
 30
0.0
 10
2.500097934396068
 20
-2.098207049414807
 30
0.0
 10
2.490124926364691
 20
-2.097607103857563
 30
0.0
 10
2.480021495386104
 20
-2.096042028490829
 30
0.0
 10
2.476552244989837
 20
-2.063897119430698
 30
0.0
 10
2.479473719007741
 20
-2.027900385995761
 30
0.0
 10
2.48834247941924
 20
-1.992068854960659
 30
0.0
 10
2.498524164166181
 20
-2.0084499771325
 30
0.0
 10
2.523661013528593
 20
-2.02572667020863
 30
0.0
 10
2.547910986849855
 20
-2.022370453033293
 30
0.0
 10
2.617748127658868
 20
-2.012684375485833
 30
0.0
 10
2.715774014795443
 20
-1.885391578991301
 30
0.0
 10
2.703940306050286
 20
-1.800034107462137
 30
0.0
 10
2.701253593337393
 20
-1.780635867777758
 30
0.0
 10
2.685246350280939
 20
-1.765054673015596
 30
0.0
 10
2.667413185963293
 20
-1.757637954749889
 30
0.0
 10
2.659335658098307
 20
-1.735031310563714
 30
0.0
 10
2.640180874582092
 20
-1.710998708821156
 30
0.0
 10
2.582951285338443
 20
-1.718928424012625
 30
0.0
 10
2.503032450708689
 20
-1.730008940237528
 30
0.0
 10
2.417206543427407
 20
-1.84039566219763
 30
0.0
 10
2.389455800830976
 20
-1.945514383947625
 30
0.0
 10
2.347892181265188
 20
-2.011176903587461
 30
0.0
 10
2.296592488688841
 20
-2.077820855905177
 30
0.0
 10
2.238704263561696
 20
-2.116674938742297
 30
0.0
 10
2.266153946521614
 20
-2.00806740315396
 30
0.0
 10
2.306924159825093
 20
-1.895642822643418
 30
0.0
 10
2.341051497683086
 20
-1.81378938096312
 30
0.0
 10
2.337660501055161
 20
-1.796469213571249
 30
0.0
 10
2.296925067204282
 20
-1.766524104887695
 30
0.0
 10
2.269771009591396
 20
-1.770288980630994
 30
0.0
 10
2.229992010686866
 20
-1.775801523867181
 30
0.0
 10
2.141678285687211
 20
-1.866149846843592
 30
0.0
 10
2.065024372169735
 20
-1.98355658393824
 30
0.0
 10
2.088370079723543
 20
-1.930891797847569
 30
0.0
 10
2.116454487693305
 20
-1.869653876692458
 30
0.0
 10
2.113228693465203
 20
-1.846369033180672
 30
0.0
 10
2.1100028992371
 20
-1.823092884532053
 30
0.0
 10
2.085970297494555
 20
-1.806650898318177
 30
0.0
 10
2.033592441887789
 20
-1.813911109047214
 30
0.0
 10
2.027738625273034
 20
-1.833385428784128
 30
0.0
 10
2.021092489253874
 20
-1.852880398821033
 30
0.0
 10
2.013139950046644
 20
-1.876490212842984
 30
0.0
 10
1.964949757903797
 20
-1.969763270410984
 30
0.0
 10
1.875373104031799
 20
-2.139209850307503
 30
0.0
 10
1.763869092157115
 20
-2.194389625563884
 30
0.0
 10
1.805569655817483
 20
-2.024483304778389
 30
0.0
 10
1.874033008249045
 20
-1.912171757488788
 30
0.0
 10
1.871207177725763
 20
-1.891799693131765
 30
0.0
 10
1.868920428717704
 20
-1.875314232602149
 30
0.0
 10
1.817116434078735
 20
-1.843934471499084
 30
0.0
 10
1.786075772638469
 20
-1.848238428757617
 30
0.0
 10
1.764405999956542
 20
-1.884637299613157
 30
0.0
 10
1.738594211842231
 20
-1.942955920466172
 30
0.0
 10
1.716819013944612
 20
-2.001779930239675
 30
0.0
 10
1.649253406133147
 20
-2.108588716014158
 30
0.0
 10
1.588208945683075
 20
-2.186776186019453
 30
0.0
 10
1.529107787146712
 20
-2.255636241582162
 30
0.0
 10
1.565565348328517
 20
-2.147759074498304
 30
0.0
 10
1.607970195903906
 20
-2.040047109814269
 30
0.0
 10
1.653557363391668
 20
-1.933874135907508
 30
0.0
 10
1.654461629159123
 20
-1.883330896425099
 30
0.0
 10
1.579929262249885
 20
-1.887730497178255
 30
0.0
 10
1.571199619648761
 20
-1.888939083155909
 30
0.0
 10
1.564782810645144
 20
-1.899712018596928
 30
0.0
 10
1.558505119451903
 20
-1.911458778710602
 30
0.0
 10
1.55152314434363
 20
-1.925283611116773
 30
0.0
 10
1.541532746585959
 20
-1.896016701758804
 30
0.0
 10
1.49870185071629
 20
-1.87229711508961
 30
0.0
 10
1.442437391282131
 20
-1.880096407333844
 30
0.0
 10
1.372891528388575
 20
-1.889739010565563
 30
0.0
 10
1.28280948559609
 20
-1.986279162961624
 30
0.0
 10
1.253365418401472
 20
-2.099960151197138
 30
0.0
 10
1.211424659146625
 20
-2.166729092172621
 30
0.0
 10
1.15930221514485
 20
-2.235038110783282
 30
0.0
 10
1.100398864745102
 20
-2.27457365351966
 30
0.0
 10
1.127848547705033
 20
-2.165966117931336
 30
0.0
 10
1.168618761008499
 20
-2.053541537420794
 30
0.0
 10
1.202746098866492
 20
-1.971688095740496
 30
0.0
 10
1.199570300101489
 20
-1.955464567963228
 30
0.0
 10
1.163751811361105
 20
-1.928525708213278
 30
0.0
 10
1.136890118521604
 20
-1.928226822292547
 30
0.0
 10
1.150772554396136
 20
-1.872639475326082
 30
0.0
 10
1.164960397338758
 20
-1.818070514205879
 30
0.0
 10
1.179124329407715
 20
-1.765102494762914
 30
0.0
 10
1.182151228641298
 20
-1.765332908636348
 30
0.0
 10
1.185208559895904
 20
-1.765365514373153
 30
0.0
 10
1.188325668334654
 20
-1.764932944931514
 30
0.0
 10
1.223644202443994
 20
-1.760035563263096
 30
0.0
 10
1.271364871976832
 20
-1.703493955066089
 30
0.0
 10
1.316208628665398
 20
-1.633479656420402
 30
0.0
 10
1.32733044549026
 20
-1.671930514979004
 30
0.0
 10
1.351155457375133
 20
-1.692459086872696
 30
0.0
 10
1.383219938951141
 20
-1.694700187849232
 30
0.0
 10
1.390297557554049
 20
-1.724367060912022
 30
0.0
 10
1.40764380953538
 20
-1.749643028084809
 30
0.0
 10
1.456143756177893
 20
-1.742921898870994
 30
0.0
 10
1.496887884891925
 20
-1.737270237824456
 30
0.0
 10
1.53679730674369
 20
-1.697134749530821
 30
0.0
 10
1.568742233951411
 20
-1.642278857926726
 30
0.0
 10
1.580219453307475
 20
-1.646626289500988
 30
0.0
 10
1.59032288428605
 20
-1.648191364867721
 30
0.0
 10
1.600026351559829
 20
-1.646843661079705
 30
0.0
 10
1.630961587784415
 20
-1.642553832973792
 30
0.0
 10
1.662431558092647
 20
-1.616424682354553
 30
0.0
 10
1.691550654777087
 20
-1.579692146125682
 30
0.0
 10
1.695733970809417
 20
-1.599734892540949
 30
0.0
 10
1.709665315289158
 20
-1.612434827027275
 30
0.0
 10
1.726440966876364
 20
-1.61941136784608
 30
0.0
 10
1.733507716900337
 20
-1.646900177690163
 30
0.0
 10
1.755287262229507
 20
-1.683658798508481
 30
0.0
 10
1.792480626205259
 20
-1.691736326373492
 30
0.0
 10
1.778600364046522
 20
-1.709950977811761
 30
0.0
 10
1.771785765053866
 20
-1.730964288325973
 30
0.0
 10
1.774155115261831
 20
-1.748056215560205
 30
0.0
 10
1.774833314587416
 20
-1.752907949197088
 30
0.0
 10
1.776746184480102
 20
-1.759568214368869
 30
0.0
 10
1.779354643424654
 20
-1.764150407248141
 30
0.0
 10
1.779302474245772
 20
-1.777992629380606
 30
0.0
 10
1.790736219286095
 20
-1.824857941751209
 30
0.0
 10
1.841183815273881
 20
-1.81785857691663
 30
0.0
 10
1.892587846208016
 20
-1.810728789134853
 30
0.0
 10
1.927949854633097
 20
-1.766280648719531
 30
0.0
 10
1.925263141920204
 20
-1.746882409035152
 30
0.0
 10
1.921898229881726
 20
-1.722632435713889
 30
0.0
 10
1.910316672167874
 20
-1.710398763263912
 30
0.0
 10
1.899674159674065
 20
-1.704947084069772
 30
0.0
 10
1.913959819827091
 20
-1.700990921337191
 30
0.0
 10
1.92948015054723
 20
-1.69884329013952
 30
0.0
 10
1.946504692592068
 20
-1.7004344500957
 30
0.0
 10
1.947449172101579
 20
-1.693768750634439
 30
0.0
 10
1.933065694738123
 20
-1.646974084026927
 30
0.0
 10
1.872670088450503
 20
-1.649919468918496
 30
0.0
 10
1.885653692847061
 20
-1.630986404412561
 30
0.0
 10
1.897704773170921
 20
-1.607378764106405
 30
0.0
 10
1.908998313542977
 20
-1.581240918624012
 30
0.0
 10
1.914658669452668
 20
-1.586396972471094
 30
0.0
 10
1.922118862034116
 20
-1.590300966024781
 30
0.0
 10
1.930413761477818
 20
-1.593109406821744
 30
0.0
 10
1.942186606180927
 20
-1.628054061815722
 30
0.0
 10
1.972192578906515
 20
-1.673328214230133
 30
0.0
 10
2.008076279120524
 20
-1.668354752509168
 30
0.0
 10
2.088104886397534
 20
-1.657253585984298
 30
0.0
 10
2.21305985156299
 20
-1.393056908642406
 30
0.0
 10
2.261533713616068
 20
-1.268856222855068
 30
0.0
 10
2.276829064752216
 20
-1.274368766091243
 30
0.0
 10
2.292788486061366
 20
-1.277971700008417
 30
0.0
 10
2.310370586205585
 20
-1.279398744422666
 30
0.0
 10
2.257158023736565
 20
-1.387623706032463
 30
0.0
 10
2.231386449364309
 20
-1.458425976650978
 30
0.0
 10
2.236898992600484
 20
-1.498196280692355
 30
0.0
 10
2.242820194404632
 20
-1.540870669025367
 30
0.0
 10
2.272234916436117
 20
-1.560521059741063
 30
0.0
 10
2.301310538804816
 20
-1.56341644916952
 30
0.0
 10
2.316013552388995
 20
-1.59103133452926
 30
0.0
 10
2.340150492489316
 20
-1.615368256482005
 30
0.0
 10
2.368147951827596
 20
-1.610499133118828
 30
0.0
 10
2.415543650850243
 20
-1.602943297042758
 30
0.0
 10
2.531411397167631
 20
-1.447470449083817
 30
0.0
 10
2.52840297451822
 20
-1.404387402182844
 30
0.0
 10
2.525577143994964
 20
-1.384015337825821
 30
0.0
 10
2.51054372561114
 20
-1.368303720116425
 30
0.0
 10
2.491067232158419
 20
-1.356174386024223
 30
0.0
 10
2.491067232158419
 20
-1.356174386024223
 30
0.0
 10
2.486215498521536
 20
-1.356843890486655
 30
0.0
 10
2.486215498521536
 20
-1.356843890486655
 30
0.0
 10
2.465382606417633
 20
-1.406204628580895
 30
0.0
 10
2.398892987920817
 20
-1.475728754316555
 30
0.0
 10
2.336855139356026
 20
-1.506082521568083
 30
0.0
 10
2.364956937052082
 20
-1.409256525546033
 30
0.0
 10
2.42078665332882
 20
-1.270016987085392
 30
0.0
 10
2.439663201224271
 20
-1.227855595678155
 30
0.0
 10
2.438341582025714
 20
-1.211231017338163
 30
0.0
 10
2.412135264496025
 20
-1.186189811470386
 30
0.0
 10
2.401031924255348
 20
-1.191684964980254
 30
0.0
 10
2.361392043161181
 20
-1.198171332889059
 30
0.0
 10
2.334664033842589
 20
-1.197919181857755
 30
0.0
 10
2.297023971272589
 20
-1.190293786876497
 30
0.0
 10
2.305144973453328
 20
-1.170382550266355
 30
0.0
 10
2.3174655945348
 20
-1.138020269627507
 30
0.0
 10
2.319161092848756
 20
-1.12889066332155
 30
0.0
 10
2.317013461651072
 20
-1.11337033260141
 30
0.0
 10
2.287459621809198
 20
-1.092746117213096
 30
0.0
 10
2.257384090178423
 20
-1.096919651524394
 30
0.0
 10
2.224404474256036
 20
-1.101493149540513
 30
0.0
 10
2.191242266207534
 20
-1.183207473410435
 30
0.0
 10
2.195415800518832
 20
-1.213274310178071
 30
0.0
 10
2.197163468011682
 20
-1.225890556606588
 30
0.0
 10
2.206806071243401
 20
-1.238393769814176
 30
0.0
 10
2.222135114974283
 20
-1.249114536076326
 30
0.0
 10
2.218941926482974
 20
-1.255922613921623
 30
0.0
 10
2.215518324118231
 20
-1.263278468145283
 30
0.0
 10
2.211993643969397
 20
-1.270840825368724
 30
0.0
 10
2.164351228204901
 20
-1.360409871235447
 30
0.0
 10
2.087607105482258
 20
-1.49060131773212
 30
0.0
 10
1.994173192946012
 20
-1.546696227334893
 30
0.0
 10
2.017371087826303
 20
-1.464381957907727
 30
0.0
 10
2.058784721002767
 20
-1.328142147233343
 30
0.0
 10
2.090381853684537
 20
-1.25653125434202
 30
0.0
 10
2.086347437183614
 20
-1.227429547383874
 30
0.0
 10
2.030569890085758
 20
-1.217360895857875
 30
0.0
 10
2.00783282295236
 20
-1.224473293913383
 30
0.0
 10
1.94939464773107
 20
-1.323533869764623
 30
0.0
 10
1.881635579214541
 20
-1.533627848022648
 30
0.0
 10
1.781122961217496
 20
-1.593048542779722
 30
0.0
 10
1.809972517144325
 20
-1.480293557469534
 30
0.0
 10
1.84643007832613
 20
-1.372416390385676
 30
0.0
 10
1.888808841312084
 20
-1.271625536767879
 30
0.0
 10
1.885417844684146
 20
-1.254296674512855
 30
0.0
 10
1.843386876224145
 20
-1.236402646153162
 30
0.0
 10
1.811511507921611
 20
-1.241810851031561
 30
0.0
 10
1.80348614923552
 20
-1.242921619798785
 30
0.0
 10
1.774264887909087
 20
-1.302156461856056
 30
0.0
 10
1.744282826057151
 20
-1.372819614664195
 30
0.0
 10
1.702653995017764
 20
-1.44610861614318
 30
0.0
 10
1.6498522648325
 20
-1.514701304664072
 30
0.0
 10
1.609260296223574
 20
-1.556582286734776
 30
0.0
 10
1.632093006851619
 20
-1.493109785750473
 30
0.0
 10
1.643726733744365
 20
-1.42722880767403
 30
0.0
 10
1.637136027477772
 20
-1.379702685704147
 30
0.0
 10
1.631214825673624
 20
-1.337019602507995
 30
0.0
 10
1.606408381110858
 20
-1.307830946918367
 30
0.0
 10
1.573350511420131
 20
-1.297588398129392
 30
0.0
 10
1.56459478422956
 20
-1.270130020306333
 30
0.0
 10
1.536927729690925
 20
-1.263087181156013
 30
0.0
 10
1.508799847405423
 20
-1.266991174709713
 30
0.0
 10
1.428906010507224
 20
-1.278068430360943
 30
0.0
 10
1.348366580020246
 20
-1.386129276428808
 30
0.0
 10
1.319894163782477
 20
-1.497419177298474
 30
0.0
 10
1.290404448556337
 20
-1.541298891035442
 30
0.0
 10
1.256728156724168
 20
-1.583861333005403
 30
0.0
 10
1.21978585692183
 20
-1.616687701964793
 30
0.0
 10
1.295177928424879
 20
-1.347494738886199
 30
0.0
 10
1.359547087171361
 20
-1.146179311834519
 30
0.0
 10
1.355935458391046
 20
-1.12014363099412
 30
0.0
 10
1.353899773556388
 20
-1.105441704267845
 30
0.0
 10
1.346299376306686
 20
-1.091348417961967
 30
0.0
 10
1.330301914971276
 20
-1.082415532934735
 30
0.0
 10
1.346425451822332
 20
-1.063148803055482
 30
0.0
 10
1.362930475794037
 20
-1.037059866178311
 30
0.0
 10
1.378938805708382
 20
-1.007348431941877
 30
0.0
 10
1.382251548567979
 20
-1.009852552528653
 30
0.0
 10
1.38543386848034
 20
-1.011391543305939
 30
0.0
 10
1.388607493529548
 20
-1.012930534083239
 30
0.0
 10
1.397337136130684
 20
-1.047310022972536
 30
0.0
 10
1.428847320180971
 20
-1.096331661403964
 30
0.0
 10
1.469591448894991
 20
-1.090680000357426
 30
0.0
 10
1.550484108197376
 20
-1.07945819260634
 30
0.0
 10
1.677289992355592
 20
-0.8163711971737939
 30
0.0
 10
1.725542135398377
 20
-0.6939257868845693
 30
0.0
 10
1.740065817430112
 20
-0.6989253331949814
 30
0.0
 10
1.755164447287547
 20
-0.7023587172807563
 30
0.0
 10
1.771772722759136
 20
-0.7037064210687857
 30
0.0
 10
1.718560160290116
 20
-0.811931382678583
 30
0.0
 10
1.692788585917861
 20
-0.8827336532970851
 30
0.0
 10
1.698301129154023
 20
-0.9225039573384871
 30
0.0
 10
1.703274590874988
 20
-0.9583963524156236
 30
0.0
 10
1.725768201840247
 20
-0.97801196367872
 30
0.0
 10
1.749557347414629
 20
-0.9855938843442497
 30
0.0
 10
1.762730065084661
 20
-1.016391089616352
 30
0.0
 10
1.786701802785172
 20
-1.046683992825845
 30
0.0
 10
1.823559327671811
 20
-1.041571413294504
 30
0.0
 10
1.870315954253051
 20
-1.03508613224359
 30
0.0
 10
1.930484407240897
 20
-0.9446965086672208
 30
0.0
 10
1.982075377732725
 20
-0.845956555894582
 30
0.0
 10
1.978338760294643
 20
-0.8685316812018552
 30
0.0
 10
1.976906281590914
 20
-0.8870386974135095
 30
0.0
 10
1.978623517062753
 20
-0.8994277905422778
 30
0.0
 10
1.982397087669218
 20
-0.9265905430182909
 30
0.0
 10
1.993683020036011
 20
-0.9438063720523865
 30
0.0
 10
2.020950110869825
 20
-0.9479364320479438
 30
0.0
 10
2.034948840538959
 20
-0.977629389700193
 30
0.0
 10
2.061129073479189
 20
-1.009591706634195
 30
0.0
 10
2.089126532817469
 20
-1.004722583271018
 30
0.0
 10
2.155085764662241
 20
-0.9955755872387549
 30
0.0
 10
2.257945995709406
 20
-0.8389463224810798
 30
0.0
 10
2.254372406955352
 20
-0.7989064776820795
 30
0.0
 10
2.251546576432083
 20
-0.778534413325057
 30
0.0
 10
2.236513158048258
 20
-0.7628227956156605
 30
0.0
 10
2.217036664595551
 20
-0.7506934615234588
 30
0.0
 10
2.217036664595551
 20
-0.7506934615234588
 30
0.0
 10
2.212184930958668
 20
-0.7513716608490438
 30
0.0
 10
2.212184930958668
 20
-0.7513716608490438
 30
0.0
 10
2.191343343991636
 20
-0.8007237040801176
 30
0.0
 10
2.129844576942054
 20
-0.8705521500259894
 30
0.0
 10
2.065876468758284
 20
-0.9011754580351281
 30
0.0
 10
2.084213935138551
 20
-0.8195393879335471
 30
0.0
 10
2.118028257923192
 20
-0.7140011390366428
 30
0.0
 10
2.14690389843948
 20
-0.6299131175271794
 30
0.0
 10
2.176840312259881
 20
-0.6247744534063915
 30
0.0
 10
2.203863946925518
 20
-0.6200444478535903
 30
0.0
 10
2.220923268422944
 20
-0.6147144967435325
 30
0.0
 10
2.248512069193238
 20
-0.6069325942256051
 30
0.0
 10
2.266771281805164
 20
-0.5460685521858674
 30
0.0
 10
2.251711778831905
 20
-0.5372780455426966
 30
0.0
 10
2.246320963679813
 20
-0.5340696410408883
 30
0.0
 10
2.216949715964069
 20
-0.5361651030596779
 30
0.0
 10
2.178987943457565
 20
-0.5404429757287643
 30
0.0
 10
2.188230582984463
 20
-0.5144453349146513
 30
0.0
 10
2.195516878302922
 20
-0.4956383459243625
 30
0.0
 10
2.1977514581321
 20
-0.4903866485826585
 30
0.0
 10
2.206968013069551
 20
-0.4713101188347713
 30
0.0
 10
2.166536899428871
 20
-0.4363828535671119
 30
0.0
 10
2.119975907268478
 20
-0.442834442023329
 30
0.0
 10
2.104342543327397
 20
-0.4726839072122351
 30
0.0
 10
2.087004986209232
 20
-0.511671673570264
 30
0.0
 10
2.07034562841664
 20
-0.5555024787020229
 30
0.0
 10
2.02391505920347
 20
-0.5629365866940235
 30
0.0
 10
1.985518543539544
 20
-0.5712227912745725
 30
0.0
 10
1.980101643798005
 20
-0.5749354978389899
 30
0.0
 10
1.95940786950449
 20
-0.589673290875756
 30
0.0
 10
1.988544355915236
 20
-0.6429728019762706
 30
0.0
 10
2.014037694666727
 20
-0.6414164214726902
 30
0.0
 10
2.018576413230272
 20
-0.6413566442885338
 30
0.0
 10
2.023390106840869
 20
-0.6411925287466147
 30
0.0
 10
2.028174455288359
 20
-0.6409099456942865
 30
0.0
 10
1.979856013914059
 20
-0.7324364226273271
 30
0.0
 10
1.899566560742591
 20
-0.873564920106964
 30
0.0
 10
1.798831136877374
 20
-0.927346996112217
 30
0.0
 10
1.82789806438292
 20
-0.8303818822797666
 30
0.0
 10
1.882188789882371
 20
-0.6943246637315117
 30
0.0
 10
1.901065337777835
 20
-0.6521632723242747
 30
0.0
 10
1.899743718579253
 20
-0.6355386939842699
 30
0.0
 10
1.873537401049564
 20
-0.6104974881164935
 30
0.0
 10
1.862434060808899
 20
-0.615992641626374
 30
0.0
 10
1.822794179714732
 20
-0.6224790095351788
 30
0.0
 10
1.79606617039614
 20
-0.6222355533670149
 30
0.0
 10
1.758426107826141
 20
-0.6146014635226038
 30
0.0
 10
1.766547110006867
 20
-0.5946902269124621
 30
0.0
 10
1.778867731088338
 20
-0.5623279462736264
 30
0.0
 10
1.780563229402307
 20
-0.5531983399676569
 30
0.0
 10
1.778415598204611
 20
-0.5376780092475302
 30
0.0
 10
1.74886175836275
 20
-0.5170537938592032
 30
0.0
 10
1.718786226731974
 20
-0.5212273281705013
 30
0.0
 10
1.685806610809588
 20
-0.525800826186633
 30
0.0
 10
1.652644402761072
 20
-0.6075151500565551
 30
0.0
 10
1.656817937072371
 20
-0.6375819868241781
 30
0.0
 10
1.658565604565233
 20
-0.6501982332527075
 30
0.0
 10
1.668208207796953
 20
-0.6627014464602957
 30
0.0
 10
1.683537251527822
 20
-0.6734222127224332
 30
0.0
 10
1.672200236840025
 20
-0.6975906717016819
 30
0.0
 10
1.658655813770388
 20
-0.7272379813223956
 30
0.0
 10
1.643433282113101
 20
-0.7572939495110833
 30
0.0
 10
1.59524852425971
 20
-0.8417754135780342
 30
0.0
 10
1.529023012231012
 20
-0.9390589767732914
 30
0.0
 10
1.451749589714205
 20
-0.9834114736939656
 30
0.0
 10
1.476529949687523
 20
-0.8840726622219613
 30
0.0
 10
1.534933345456226
 20
-0.7276781587692842
 30
0.0
 10
1.567304320958202
 20
-0.6688052403905608
 30
0.0
 10
1.563965493509184
 20
-0.6376341560030722
 30
0.0
 10
1.483894498774336
 20
-0.6091932586442176
 30
0.0
 10
1.462818150502294
 20
-0.6496852363269454
 30
0.0
 10
1.462818150502294
 20
-0.6496852363269454
 30
0.0
 10
1.445211052626506
 20
-0.6867253533396883
 30
0.0
 10
1.445211052626506
 20
-0.6867253533396883
 30
0.0
 10
1.437298727161343
 20
-0.6581627278967642
 30
0.0
 10
1.40680584209944
 20
-0.6307565192525872
 30
0.0
 10
1.352480337147401
 20
-0.6382862707392102
 30
0.0
 10
1.291100037608216
 20
-0.6467985417616293
 30
0.0
 10
1.210669292910602
 20
-0.7360121850971634
 30
0.0
 10
1.176121341047797
 20
-0.8370367131620797
 30
0.0
 10
1.122190365511124
 20
-0.9201204779778891
 30
0.0
 10
1.050390359346314
 20
-1.01070356225931
 30
0.0
 10
0.9734973370922514
 20
-1.050718409326767
 30
0.0
 10
0.9929390510923718
 20
-0.9699257409505814
 30
0.0
 10
1.025779549204395
 20
-0.8645266098640655
 30
0.0
 10
1.054794307531046
 20
-0.7814037181640793
 30
0.0
 10
1.084730721351447
 20
-0.7762650540432913
 30
0.0
 10
1.111754356017097
 20
-0.77153504849049
 30
0.0
 10
1.12881367751451
 20
-0.766205097380445
 30
0.0
 10
1.156402478284816
 20
-0.7584231948625049
 30
0.0
 10
1.17466169089673
 20
-0.6975591528227671
 30
0.0
 10
1.159602187923471
 20
-0.6887686461795965
 30
0.0
 10
1.154211372771379
 20
-0.6855602416777881
 30
0.0
 10
1.124840125055635
 20
-0.6876557036965903
 30
0.0
 10
1.08687835254913
 20
-0.6919335763656641
 30
0.0
 10
1.096120992076029
 20
-0.6659359355515512
 30
0.0
 10
1.1034072873945
 20
-0.647128946561275
 30
0.0
 10
1.105641867223666
 20
-0.6418772492195582
 30
0.0
 10
1.114858422161117
 20
-0.6228007194716711
 30
0.0
 10
1.074427308520436
 20
-0.5878734542040117
 30
0.0
 10
1.027866316360031
 20
-0.5943250426602288
 30
0.0
 10
1.012232952418976
 20
-0.6241745078491476
 30
0.0
 10
0.9948953953007983
 20
-0.6631622742071638
 30
0.0
 10
0.9782360375082059
 20
-0.7069930793389226
 30
0.0
 10
0.9318054682950357
 20
-0.7144271873309233
 30
0.0
 10
0.8934089526311102
 20
-0.7227133919114723
 30
0.0
 10
0.8879920528895707
 20
-0.7264260984759023
 30
0.0
 10
0.8672982785960686
 20
-0.7411638915126685
 30
0.0
 10
0.8964347650068021
 20
-0.7944634026131704
 30
0.0
 10
0.921928103758306
 20
-0.79290702210959
 30
0.0
 10
0.9298230394971748
 20
-0.7928026837518019
 30
0.0
 10
0.9386831050455333
 20
-0.7925592275836505
 30
0.0
 10
0.946447617837167
 20
-0.7914897594163727
 30
0.0
 10
0.9307696927224671
 20
-0.8378801148874875
 30
0.0
 10
0.9164459925431553
 20
-0.8846019620161263
 30
0.0
 10
0.905644798796882
 20
-0.9261449312819346
 30
0.0
 10
0.8780918643370796
 20
-0.9696757636350715
 30
0.0
 10
0.8462838812239523
 20
-1.013604385977247
 30
0.0
 10
0.8110675117566062
 20
-1.049619595996369
 30
0.0
 10
0.8119000449030788
 20
-1.038647765560806
 30
0.0
 10
0.8115479029455628
 20
-1.027432478957091
 30
0.0
 10
0.8099730458577848
 20
-1.016078074543
 30
0.0
 10
0.7972002918925858
 20
-0.9239212200316917
 30
0.0
 10
0.628476472495284
 20
-0.897880104901838
 30
0.0
 10
0.6174513860229479
 20
-0.8183394968190466
 30
0.0
 10
0.608443507801073
 20
-0.7533540896469049
 30
0.0
 10
0.6902969494813583
 20
-0.6164360796469484
 30
0.0
 10
0.7892010177959415
 20
-0.5453816579971291
 30
0.0
 10
0.7940005822539307
 20
-0.6584148789280687
 30
0.0
 10
0.7369883645889861
 20
-0.7463981991280787
 30
0.0
 10
0.6912272998382605
 20
-0.7942721156239132
 30
0.0
 10
0.6991744047560233
 20
-0.8159049351374581
 30
0.0
 10
0.7214245595531186
 20
-0.8266604808521959
 30
0.0
 10
0.7505262665112519
 20
-0.8226260643512735
 30
0.0
 10
0.8475261597963026
 20
-0.8091751110604894
 30
0.0
 10
0.9031385044943236
 20
-0.6897511657153801
 30
0.0
 10
0.8899657868242912
 20
-0.5946902269124621
 30
0.0
 10
0.8818882589593057
 20
-0.536486812996183
 30
0.0
 10
0.8315623910555889
 20
-0.5157843438395149
 30
0.0
 10
0.79570477543104
 20
-0.5138279996311009
 30
0.0
 10
0.7812365231518849
 20
-0.4950731798197188
 30
0.0
 10
0.7528651846982181
 20
-0.4901084129619069
 30
0.0
 10
0.7295890360495857
 20
-0.4933429020531497
 30
0.0
 10
0.6287025389371542
 20
-0.5073242419960025
 30
0.0
 10
0.4907672299488139
 20
-0.6747525267841689
 30
0.0
 10
0.5094611857181613
 20
-0.8095837696284762
 30
0.0
 10
0.5250597702066291
 20
-0.9221126884967942
 30
0.0
 10
0.6834106178677201
 20
-0.9446410789146537
 30
0.0
 10
0.6932271183624152
 20
-1.015452044396309
 30
0.0
 10
0.6980701571361578
 20
-1.050379309663968
 30
0.0
 10
0.6727072413318763
 20
-1.088497589707142
 30
0.0
 10
0.5776463025289583
 20
-1.101679002240316
 30
0.0
 10
0.5184690639400362
 20
-1.109878258189383
 30
0.0
 10
0.4561790643439407
 20
-1.102696301228699
 30
0.0
 10
0.4267643423124556
 20
-1.083054605376156
 30
0.0
 10
0.4364069455441748
 20
-1.19540962698151
 30
0.0
 10
0.5376847114982992
 20
-1.219929141060371
 30
0.0
 10
0.6249898323727241
 20
-1.207817196694464
 30
0.0
 10
0.6534350771631554
 20
-1.203874076256612
 30
0.0
 10
0.6786023585465905
 20
-1.196805152516845
 30
0.0
 10
0.700768825285877
 20
-1.187463608921639
 30
0.0
 10
0.7156272595488341
 20
-1.207036832726885
 30
0.0
 10
0.7356852219746012
 20
-1.221596381069111
 30
0.0
 10
0.757833212129703
 20
-1.218527094377679
 30
0.0
 10
0.7951254801737629
 20
-1.213355824520085
 30
0.0
 10
0.8462512754871466
 20
-1.150641950345504
 30
0.0
 10
0.8932100576365908
 20
-1.075243357695096
 30
0.0
 10
0.898820418083182
 20
-1.086870563440471
 30
0.0
 10
0.9079402426680947
 20
-1.09474484887936
 30
0.0
 10
0.9227454208942668
 20
-1.098296700475544
 30
0.0
 10
0.9308555544960578
 20
-1.117256936428804
 30
0.0
 10
0.9439739292714142
 20
-1.1369573226076
 30
0.0
 10
0.9605028641167715
 20
-1.148060662848277
 30
0.0
 10
0.9361876793218976
 20
-1.270666928105748
 30
0.0
 10
0.8385552347427973
 20
-1.58853047451617
 30
0.0
 10
0.8484858553163247
 20
-1.660120717107513
 30
0.0
 10
0.8527898125748454
 20
-1.691161378547779
 30
0.0
 10
0.8661451223709946
 20
-1.709081491496906
 30
0.0
 10
0.8813437431546288
 20
-1.718837127949554
 30
0.0
 10
0.8911428539230302
 20
-1.760981129630497
 30
0.0
 10
0.9090455771458512
 20
-1.818810664431402
 30
0.0
 10
0.9662751663895
 20
-1.810872254376793
 30
0.0
 10
1.019626846668908
 20
-1.803481620700533
 30
0.0
 10
1.109775187792909
 20
-1.605108317966735
 30
0.0
 10
1.158866385129525
 20
-1.488562372323789
 30
0.0
 10
1.115913761175774
 20
-1.627984502910522
 30
0.0
 10
1.030764966362186
 20
-1.890917164522193
 30
0.0
 10
1.034364639705675
 20
-1.924027203391802
 30
0.0
 10
1.039625031910532
 20
-1.94714467078797
 30
0.0
 10
1.052377135575752
 20
-1.961102099857158
 30
0.0
 10
1.066979071375828
 20
-1.969411128453468
 30
0.0
 10
1.025083960152503
 20
-2.007732650922738
 30
0.0
 10
0.9737310115393711
 20
-2.069449876408928
 30
0.0
 10
0.9267189733531419
 20
-2.141455298715616
 30
0.0
 10
0.9500646809069622
 20
-2.088790512624946
 30
0.0
 10
0.9781490888767241
 20
-2.027552591469822
 30
0.0
 10
0.9749232946486093
 20
-2.004267747958061
 30
0.0
 10
0.9716975004205071
 20
-1.980991599309429
 30
0.0
 10
0.9476648986779612
 20
-1.964549613095553
 30
0.0
 10
0.8952870430711957
 20
-1.971809823824578
 30
0.0
 10
0.8888082831676405
 20
-1.993361128996109
 30
0.0
 10
0.8813828700387931
 20
-2.014866786136117
 30
0.0
 10
0.8722619585959894
 20
-2.042033886043706
 30
0.0
 10
0.7507577672425896
 20
-2.226047622287701
 30
0.0
 10
0.6141505986001903
 20
-2.346072600047958
 30
0.0
 10
0.5147302727861718
 20
-2.370625806721515
 30
0.0
 10
0.4885326501196358
 20
-2.274399756256697
 30
0.0
 10
0.5924536544709124
 20
-2.161131774020747
 30
0.0
 10
0.711129841585249
 20
-2.09721583501587
 30
0.0
 10
0.7297281538599615
 20
-2.088703563993464
 30
0.0
 10
0.737057923494174
 20
-2.056054352870723
 30
0.0
 10
0.7154772731595231
 20
-2.050141845929728
 30
0.0
 10
0.6551870920875823
 20
-2.028848126078957
 30
0.0
 10
0.5496836226432783
 20
-1.988112692228078
 30
0.0
 10
0.5534398035234491
 20
-1.915414941443184
 30
0.0
 10
0.6116258277134344
 20
-1.878679144640627
 30
0.0
 10
0.6941574687193174
 20
-1.84647337153846
 30
0.0
 10
0.7710635332680972
 20
-1.837787203253078
 30
0.0
 10
0.7471787441990677
 20
-1.886574080379495
 30
0.0
 10
0.7111733159009898
 20
-1.919249376091683
 30
0.0
 10
0.6696205649141499
 20
-1.954672248558811
 30
0.0
 10
0.6695336162826682
 20
-1.975444276620667
 30
0.0
 10
0.6874972035475366
 20
-1.983826124695851
 30
0.0
 10
0.7127210015414296
 20
-1.980330789710138
 30
0.0
 10
0.7534651302554619
 20
-1.974687823526741
 30
0.0
 10
0.8459523895664157
 20
-1.914406337317953
 30
0.0
 10
0.8477435313750068
 20
-1.848899238356909
 30
0.0
 10
0.8477957005539009
 20
-1.835057016224432
 30
0.0
 10
0.8411962994241674
 20
-1.8231189691215
 30
0.0
 10
0.8294582341736461
 20
-1.816832583065105
 30
0.0
 10
0.8270323673552108
 20
-1.799373297862859
 30
0.0
 10
0.8178245072809128
 20
-1.782853057880642
 30
0.0
 10
0.7975046121027844
 20
-1.771827971408293
 30
0.0
 10
0.7748544936008557
 20
-1.758168341401958
 30
0.0
 10
0.7167119437266112
 20
-1.75238625740816
 30
0.0
 10
0.6594736596198092
 20
-1.760324667462783
 30
0.0
 10
0.5508313445788846
 20
-1.775384170436054
 30
0.0
 10
0.4493188173197495
 20
-1.841856399206588
 30
0.0
 10
0.4599439400872648
 20
-1.918492922997769
 30
0.0
 10
0.4610221031176833
 20
-1.926248740926263
 30
0.0
 10
0.4630653959575789
 20
-1.933874135907508
 30
0.0
 10
0.4670563381427604
 20
-1.941238684994333
 30
0.0
 10
0.4625784836212637
 20
-1.951742079677754
 30
0.0
 10
0.461282949012141
 20
-1.963784465138474
 30
0.0
 10
0.4613612027804694
 20
-1.978600511943581
 30
0.0
 10
0.4628045500631338
 20
-2.031795684686307
 30
0.0
 10
0.5219383143363024
 20
-2.066105614670417
 30
0.0
 10
0.5865498423930577
 20
-2.082851921094503
 30
0.0
 10
0.4768206694585615
 20
-2.12575237586936
 30
0.0
 10
0.3935412702219057
 20
-2.202545407197211
 30
0.0
 10
0.3976974148069101
 20
-2.303805783425041
 30
0.0
 10
0.3987060189321406
 20
-2.361009288079256
 30
0.0
 10
0.4276686080798981
 20
-2.391597816635782
 30
0.0
 10
0.4616916075801151
 20
-2.401709942477522
 30
0.0
 10
0.4695517638663962
 20
-2.444123484916089
 30
0.0
 10
0.5188516379185759
 20
-2.478807294015572
 30
0.0
 10
0.5780201816443448
 20
-2.470608038066505
 30
0.0
 10
0.6467758988492783
 20
-2.461074120624137
 30
0.0
 10
0.7405619533430404
 20
-2.348807134508168
 30
0.0
 10
0.8106903720675341
 20
-2.242090731654634
 30
0.0
 10
0.7988512290329102
 20
-2.282747911737184
 30
0.0
 10
0.7881532867865341
 20
-2.325747270580362
 30
0.0
 10
0.7919225099614221
 20
-2.352940455077399
 30
0.0
 10
0.797035089492763
 20
-2.389797979964037
 30
0.0
 10
0.8269280289974227
 20
-2.427177196639579
 30
0.0
 10
0.8599163397829619
 20
-2.422603698623448
 30
0.0
 10
0.9197978622869161
 20
-2.241281022523935
 30
0.0
 10
0.9933824891129587
 20
-2.13023892525401
 30
0.0
 10
1.057959237717114
 20
-2.054054534346556
 30
0.0
 10
1.025066570426209
 20
-2.137707812698598
 30
0.0
 10
0.9895828339170469
 20
-2.24544586197208
 30
0.0
 10
0.9993819446854356
 20
-2.287589863653023
 30
0.0
 10
1.003738071122851
 20
-2.304779608097672
 30
0.0
 10
1.013380674354582
 20
-2.317291516168413
 30
0.0
 10
1.025396975225855
 20
-2.325508161843775
 30
0.0
 10
1.037030702118588
 20
-2.35948768702825
 30
0.0
 10
1.06747141800161
 20
-2.400744812668045
 30
0.0
 10
1.103355118215606
 20
-2.39577135094708
 30
0.0
 10
1.143977518845557
 20
-2.390138166484727
 30
0.0
 10
1.201001691947327
 20
-2.31622422171693
 30
0.0
 10
1.251185181466983
 20
-2.232010124691808
 30
0.0
 10
1.257193331902613
 20
-2.250073702882888
 30
0.0
 10
1.266869627729041
 20
-2.264287630414957
 30
0.0
 10
1.279339148341933
 20
-2.272478191500871
 30
0.0
 10
1.284043069305287
 20
-2.306422937232746
 30
0.0
 10
1.296720179775851
 20
-2.355088086275095
 30
0.0
 10
1.355897418364773
 20
-2.346888830326027
 30
0.0
 10
1.406336319489419
 20
-2.339889465491448
 30
0.0
 10
1.45827943193875
 20
-2.236785778276145
 30
0.0
 10
1.491980721502475
 20
-2.158958058233616
 30
0.0
 10
1.463965872437901
 20
-2.235012026193835
 30
0.0
 10
1.438724684717714
 20
-2.309692205776577
 30
0.0
 10
1.420448082379481
 20
-2.377486053745706
 30
0.0
 10
1.37300890904108
 20
-2.427559770618119
 30
0.0
 10
1.330995330307372
 20
-2.473920780926101
 30
0.0
 10
1.337586036573953
 20
-2.521455597759136
 30
0.0
 10
1.343507238378114
 20
-2.564138680955289
 30
0.0
 10
1.382894968440963
 20
-2.584380322365089
 30
0.0
 10
1.442063512166732
 20
-2.576172371552856
 30
0.0
 10
1.454227625711521
 20
-2.514177997303805
 30
0.0
 10
1.470408766030965
 20
-2.452618366212189
 30
0.0
 10
1.487563731023013
 20
-2.390919617310197
 30
0.0
 10
1.546585548933156
 20
-2.330712037438186
 30
0.0
 10
1.613828359950238
 20
-2.251715945160059
 30
0.0
 10
1.670537344262862
 20
-2.176191276994005
 30
0.0
 10
1.670387357873551
 20
-2.182115739371839
 30
0.0
 10
1.670563428852309
 20
-2.187455472202929
 30
0.0
 10
1.671512255793409
 20
-2.191372508051346
 30
0.0
 10
1.678320333638693
 20
-2.219100426632015
 30
0.0
 10
1.698196790796247
 20
-2.23414253987898
 30
0.0
 10
1.720612147993165
 20
-2.238942104336982
 30
0.0
 10
1.73391528861042
 20
-2.270713134281714
 30
0.0
 10
1.761478004791267
 20
-2.305449112560091
 30
0.0
 10
1.79431850290329
 20
-2.299910484734495
 30
0.0
 10
1.834549634691547
 20
-2.293341515625773
 30
0.0
 10
1.886948140598292
 20
-2.222205579633939
 30
0.0
 10
1.935183980772674
 20
-2.137620864067117
 30
0.0
 10
1.930570269014487
 20
-2.159588435811884
 30
0.0
 10
1.928117230748714
 20
-2.17981594806905
 30
0.0
 10
1.930227908778016
 20
-2.195041740300035
 30
0.0
 10
1.935340488309357
 20
-2.231899265186661
 30
0.0
 10
1.965233427814016
 20
-2.269278481862228
 30
0.0
 10
1.998221738599543
 20
-2.264704983846084
 30
0.0
 10
2.058103261103497
 20
-2.083382307746559
 30
0.0
 10
2.13168788792954
 20
-1.972340210476634
 30
0.0
 10
2.196264636533707
 20
-1.89615581956918
 30
0.0
 10
2.163371969242803
 20
-1.979809097921222
 30
0.0
 10
2.127888232733628
 20
-2.087547147194704
 30
0.0
 10
2.137687343502029
 20
-2.129691148875648
 30
0.0
 10
2.142043469939444
 20
-2.146880893320296
 30
0.0
 10
2.151686073171176
 20
-2.159392801391037
 30
0.0
 10
2.163702374042448
 20
-2.167609447066411
 30
0.0
 10
2.175336100935182
 20
-2.201588972250875
 30
0.0
 10
2.205776816818191
 20
-2.242846097890669
 30
0.0
 10
2.2416605170322
 20
-2.237872636169704
 30
0.0
 10
2.282975246140343
 20
-2.232142721354825
 30
0.0
 10
2.341259087540758
 20
-2.155788780615972
 30
0.0
 10
2.392052304338714
 20
-2.069797670934867
 30
0.0
 10
2.401058008844795
 20
-2.087757997626075
 30
0.0
 10
2.414539394156602
 20
-2.100488364133399
 30
0.0
 10
2.43025209872389
 20
-2.107884432099127
 30
0.0
 10
2.450902398701664
 20
-2.171261289588794
 30
0.0
 10
2.505488749548173
 20
-2.201267262314395
 30
0.0
 10
2.56757007242868
 20
-2.192659347797328
 30
0.0
 10
2.620069656119527
 20
-2.185380660484118
 30
0.0
 10
2.684157318671585
 20
-2.113990399745186
 30
0.0
 10
2.740119631611353
 20
-2.028997025610377
 30
0.0
 10
2.738929522217884
 20
-2.038454863000197
 30
0.0
 10
2.739488167175169
 20
-2.048202891447596
 30
0.0
 10
2.740832610389513
 20
-2.057880274131915
 30
0.0
 10
2.748231938928913
 20
-2.111231954411311
 30
0.0
 10
2.792758333112563
 20
-2.161410009641498
 30
0.0
 10
2.868421032231102
 20
-2.150924004684371
 30
0.0
 10
2.940197127522247
 20
-2.140968386379301
 30
0.0
 10
2.997044142787356
 20
-2.058941047436027
 30
0.0
 10
2.996844160934946
 20
-1.971966331361247
 30
0.0
 10
2.997009363334769
 20
-1.966010350104499
 30
0.0
 10
2.996070318114726
 20
-1.959219661985495
 30
0.0
 10
2.995131272894683
 20
-1.952428973866492
 30
0.0
 10
2.986253817620031
 20
-1.888408696503853
 30
0.0
 10
2.94059709122708
 20
-1.808720275747532
 30
0.0
 10
2.922850875540917
 20
-1.780531529419982
 30
0.0
  0
SPLINE
  5
42
330
1F
100
AcDbEntity
  8
Layer 1
 62
     7
420
 16777215
370
     9
100
AcDbSpline
210
0.0
220
0.0
230
1.0
 70
    11
 71
     3
 72
    11
 73
     7
 74
     0
 42
0.0000000001
 43
0.0000000001
 12
1.0
 22
0.0
 32
0.0
 13
1.0
 23
0.0
 33
0.0
 40
0.0
 40
0.0
 40
0.0
 40
0.0
 40
1.0
 40
1.0
 40
1.0
 40
2.0
 40
2.0
 40
2.0
 40
2.0
 10
1.881780131314384
 20
-1.711389977662836
 30
0.0
 10
1.875580693889484
 20
-1.737952784581605
 30
0.0
 10
1.849600442801665
 20
-1.757377108855432
 30
0.0
 10
1.816890367636878
 20
-1.763889561353684
 30
0.0
 10
1.828315417814047
 20
-1.746482445330318
 30
0.0
 10
1.852087173662148
 20
-1.725388707331982
 30
0.0
 10
1.881780131314384
 20
-1.711389977662836
 30
0.0
  0
SPLINE
  5
43
330
1F
100
AcDbEntity
  8
Layer 1
 62
     7
420
 16777215
370
     9
100
AcDbSpline
210
0.0
220
0.0
230
1.0
 70
    11
 71
     3
 72
    14
 73
    10
 74
     0
 42
0.0000000001
 43
0.0000000001
 12
1.0
 22
0.0
 32
0.0
 13
1.0
 23
0.0
 33
0.0
 40
0.0
 40
0.0
 40
0.0
 40
0.0
 40
1.0
 40
1.0
 40
1.0
 40
2.0
 40
2.0
 40
2.0
 40
3.0
 40
3.0
 40
3.0
 40
3.0
 10
1.558769225920034
 20
-1.306526717446092
 30
0.0
 10
1.567107599679477
 20
-1.366669085844503
 30
0.0
 10
1.5598734735399
 20
-1.442810002436204
 30
0.0
 10
1.537701572511133
 20
-1.511134237057389
 30
0.0
 10
1.526346081239151
 20
-1.479102361218186
 30
0.0
 10
1.520529217792791
 20
-1.444314213760903
 30
0.0
 10
1.518946752699751
 20
-1.425750680938791
 30
0.0
 10
1.513216837884872
 20
-1.370190505419651
 30
0.0
 10
1.534188847799138
 20
-1.321803591998067
 30
0.0
 10
1.558769225920034
 20
-1.306526717446092
 30
0.0
  0
SPLINE
  5
44
330
1F
100
AcDbEntity
  8
Layer 1
 62
     7
420
 16777215
370
     9
100
AcDbSpline
210
0.0
220
0.0
230
1.0
 70
    11
 71
     3
 72
    17
 73
    13
 74
     0
 42
0.0000000001
 43
0.0000000001
 12
1.0
 22
0.0
 32
0.0
 13
1.0
 23
0.0
 33
0.0
 40
0.0
 40
0.0
 40
0.0
 40
0.0
 40
1.0
 40
1.0
 40
1.0
 40
2.0
 40
2.0
 40
2.0
 40
3.0
 40
3.0
 40
3.0
 40
4.0
 40
4.0
 40
4.0
 40
4.0
 10
1.461004184677929
 20
-1.471346543289693
 30
0.0
 10
1.46786443170212
 20
-1.520820314604849
 30
0.0
 10
1.484045572021538
 20
-1.559112491910999
 30
0.0
 10
1.502765612380333
 20
-1.587162120428161
 30
0.0
 10
1.478646062006305
 20
-1.627088932006233
 30
0.0
 10
1.445553412862978
 20
-1.659364264013586
 30
0.0
 10
1.405887447179364
 20
-1.67277174298863
 30
0.0
 10
1.402705127267003
 20
-1.571380943813589
 30
0.0
 10
1.428963613975573
 20
-1.482710729424828
 30
0.0
 10
1.463438746359518
 20
-1.417620983894911
 30
0.0
 10
1.460039054868439
 20
-1.435888891369978
 30
0.0
 10
1.458717435669857
 20
-1.45486108276009
 30
0.0
 10
1.461004184677929
 20
-1.471346543289693
 30
0.0
  0
SPLINE
  5
45
330
1F
100
AcDbEntity
  8
Layer 1
 62
     7
420
 16777215
370
     9
100
AcDbSpline
210
0.0
220
0.0
230
1.0
 70
    11
 71
     3
 72
    11
 73
     7
 74
     0
 42
0.0000000001
 43
0.0000000001
 12
1.0
 22
0.0
 32
0.0
 13
1.0
 23
0.0
 33
0.0
 40
0.0
 40
0.0
 40
0.0
 40
0.0
 40
1.0
 40
1.0
 40
1.0
 40
2.0
 40
2.0
 40
2.0
 40
2.0
 10
1.419535121748885
 20
-0.7011588261662559
 30
0.0
 10
1.406536301341829
 20
-0.7642661428983122
 30
0.0
 10
1.344141963387958
 20
-0.9488928669942803
 30
0.0
 10
1.2335259144123
 20
-1.00674848638462
 30
0.0
 10
1.238308089143995
 20
-0.9200693956568986
 30
0.0
 10
1.302476179180177
 20
-0.741120417196915
 30
0.0
 10
1.419535121748885
 20
-0.7011588261662559
 30
0.0
  0
SPLINE
  5
46
330
1F
100
AcDbEntity
  8
Layer 1
 62
     7
420
 16777215
370
     9
100
AcDbSpline
210
0.0
220
0.0
230
1.0
 70
    11
 71
     3
 72
    23
 73
    19
 74
     0
 42
0.0000000001
 43
0.0000000001
 12
1.0
 22
0.0
 32
0.0
 13
1.0
 23
0.0
 33
0.0
 40
0.0
 40
0.0
 40
0.0
 40
0.0
 40
1.0
 40
1.0
 40
1.0
 40
2.0
 40
2.0
 40
2.0
 40
3.0
 40
3.0
 40
3.0
 40
4.0
 40
4.0
 40
4.0
 40
5.0
 40
5.0
 40
5.0
 40
6.0
 40
6.0
 40
6.0
 40
6.0
 10
0.9417904317632393
 20
-1.669928522739054
 30
0.0
 10
1.00221103578239
 20
-1.492483755603782
 30
0.0
 10
1.08983786659332
 20
-1.233168157061906
 30
0.0
 10
1.081499492833877
 20
-1.173025788663507
 30
0.0
 10
1.078219355711086
 20
-1.14936163174688
 30
0.0
 10
1.066301958908134
 20
-1.133846735316208
 30
0.0
 10
1.049336107189561
 20
-1.124493236284176
 30
0.0
 10
1.085637160834684
 20
-1.092473315881812
 30
0.0
 10
1.127376851379217
 20
-1.040040030522467
 30
0.0
 10
1.165425572517203
 20
-0.9819213915218875
 30
0.0
 10
1.171460894400184
 20
-1.001928271626664
 30
0.0
 10
1.181938204494158
 20
-1.017246446778586
 30
0.0
 10
1.196607525483627
 20
-1.025711982911578
 30
0.0
 10
1.202130937298736
 20
-1.054990847706373
 30
0.0
 10
1.21996953590585
 20
-1.094457918395455
 30
0.0
 10
1.248965817648316
 20
-1.11015975438382
 30
0.0
 10
1.195480453848
 20
-1.252349025167582
 30
0.0
 10
1.078971461373435
 20
-1.585964403029455
 30
0.0
 10
0.9417904317632393
 20
-1.669928522739054
 30
0.0
  0
SPLINE
  5
47
330
1F
100
AcDbEntity
  8
Layer 1
 62
     7
420
 16777215
370
     9
100
AcDbSpline
210
0.0
220
0.0
230
1.0
 70
    11
 71
     3
 72
    11
 73
     7
 74
     0
 42
0.0000000001
 43
0.0000000001
 12
1.0
 22
0.0
 32
0.0
 13
1.0
 23
0.0
 33
0.0
 40
0.0
 40
0.0
 40
0.0
 40
0.0
 40
1.0
 40
1.0
 40
1.0
 40
2.0
 40
2.0
 40
2.0
 40
2.0
 10
1.320100666782259
 20
-2.259905419388095
 30
0.0
 10
1.324222031914663
 20
-2.168374595023478
 30
0.0
 10
1.399171752255016
 20
-1.96024565583702
 30
0.0
 10
1.546775749064535
 20
-1.933848051318073
 30
0.0
 10
1.489250534473828
 20
-2.046620426354555
 30
0.0
 10
1.416518004236347
 20
-2.220830704398584
 30
0.0
 10
1.320100666782259
 20
-2.259905419388095
 30
0.0
  0
SPLINE
  5
48
330
1F
100
AcDbEntity
  8
Layer 1
 62
     7
420
 16777215
370
     9
100
AcDbSpline
210
0.0
220
0.0
230
1.0
 70
    11
 71
     3
 72
    11
 73
     7
 74
     0
 42
0.0000000001
 43
0.0000000001
 12
1.0
 22
0.0
 32
0.0
 13
1.0
 23
0.0
 33
0.0
 40
0.0
 40
0.0
 40
0.0
 40
0.0
 40
1.0
 40
1.0
 40
1.0
 40
2.0
 40
2.0
 40
2.0
 40
2.0
 10
2.639224439635755
 20
-1.775392865299194
 30
0.0
 10
2.621478223949592
 20
-1.847055927369411
 30
0.0
 10
2.549997754005504
 20
-1.95188119748813
 30
0.0
 10
2.492846418530184
 20
-1.974635654347846
 30
0.0
 10
2.51730506856701
 20
-1.88720880538934
 30
0.0
 10
2.572908718401891
 20
-1.803372934911181
 30
0.0
 10
2.639224439635755
 20
-1.775392865299194
 30
0.0
  0
SPLINE
  5
49
330
1F
100
AcDbEntity
  8
Layer 1
 62
     7
420
 16777215
370
     9
100
AcDbSpline
210
0.0
220
0.0
230
1.0
 70
    11
 71
     3
 72
    23
 73
    19
 74
     0
 42
0.0000000001
 43
0.0000000001
 12
1.0
 22
0.0
 32
0.0
 13
1.0
 23
0.0
 33
0.0
 40
0.0
 40
0.0
 40
0.0
 40
0.0
 40
1.0
 40
1.0
 40
1.0
 40
2.0
 40
2.0
 40
2.0
 40
3.0
 40
3.0
 40
3.0
 40
4.0
 40
4.0
 40
4.0
 40
5.0
 40
5.0
 40
5.0
 40
6.0
 40
6.0
 40
6.0
 40
6.0
 10
2.81218265738639
 20
-2.05194168260146
 30
0.0
 10
2.783912396716813
 20
-2.055860892165659
 30
0.0
 10
2.762905607349959
 20
-2.044703209030306
 30
0.0
 10
2.742756348861134
 20
-2.02494521938316
 30
0.0
 10
2.743808427302105
 20
-2.02333232226911
 30
0.0
 10
2.744862679458859
 20
-2.021723772586622
 30
0.0
 10
2.745908236752471
 20
-2.020102180609431
 30
0.0
 10
2.767319337255735
 20
-2.004440558363133
 30
0.0
 10
2.801502104866308
 20
-1.934905564048512
 30
0.0
 10
2.829721283214869
 20
-1.868079019604667
 30
0.0
 10
2.836358724370888
 20
-1.853805314888468
 30
0.0
 10
2.842412522838054
 20
-1.840035912234864
 30
0.0
 10
2.847733779084946
 20
-1.827067523848831
 30
0.0
 10
2.864036647488458
 20
-1.860061268923826
 30
0.0
 10
2.881865464374515
 20
-1.898526256635035
 30
0.0
 10
2.887567120884177
 20
-1.939656219901293
 30
0.0
 10
2.896044612453996
 20
-2.000772412972335
 30
0.0
 10
2.857769824874152
 20
-2.045620517092478
 30
0.0
 10
2.81218265738639
 20
-2.05194168260146
 30
0.0
  0
SPLINE
  5
4A
330
1F
100
AcDbEntity
  8
Layer 1
 62
     7
420
 16777215
370
     9
100
AcDbSpline
210
0.0
220
0.0
230
1.0
 70
    11
 71
     3
 72
   437
 73
   433
 74
     0
 42
0.0000000001
 43
0.0000000001
 12
1.0
 22
0.0
 32
0.0
 13
1.0
 23
0.0
 33
0.0
 40
0.0
 40
0.0
 40
0.0
 40
0.0
 40
1.0
 40
1.0
 40
1.0
 40
2.0
 40
2.0
 40
2.0
 40
3.0
 40
3.0
 40
3.0
 40
4.0
 40
4.0
 40
4.0
 40
5.0
 40
5.0
 40
5.0
 40
6.0
 40
6.0
 40
6.0
 40
7.0
 40
7.0
 40
7.0
 40
8.0
 40
8.0
 40
8.0
 40
9.0
 40
9.0
 40
9.0
 40
10.0
 40
10.0
 40
10.0
 40
11.0
 40
11.0
 40
11.0
 40
12.0
 40
12.0
 40
12.0
 40
13.0
 40
13.0
 40
13.0
 40
14.0
 40
14.0
 40
14.0
 40
15.0
 40
15.0
 40
15.0
 40
16.0
 40
16.0
 40
16.0
 40
17.0
 40
17.0
 40
17.0
 40
18.0
 40
18.0
 40
18.0
 40
19.0
 40
19.0
 40
19.0
 40
20.0
 40
20.0
 40
20.0
 40
21.0
 40
21.0
 40
21.0
 40
22.0
 40
22.0
 40
22.0
 40
23.0
 40
23.0
 40
23.0
 40
24.0
 40
24.0
 40
24.0
 40
25.0
 40
25.0
 40
25.0
 40
26.0
 40
26.0
 40
26.0
 40
27.0
 40
27.0
 40
27.0
 40
28.0
 40
28.0
 40
28.0
 40
29.0
 40
29.0
 40
29.0
 40
30.0
 40
30.0
 40
30.0
 40
31.0
 40
31.0
 40
31.0
 40
32.0
 40
32.0
 40
32.0
 40
33.0
 40
33.0
 40
33.0
 40
34.0
 40
34.0
 40
34.0
 40
35.0
 40
35.0
 40
35.0
 40
36.0
 40
36.0
 40
36.0
 40
37.0
 40
37.0
 40
37.0
 40
38.0
 40
38.0
 40
38.0
 40
39.0
 40
39.0
 40
39.0
 40
40.0
 40
40.0
 40
40.0
 40
41.0
 40
41.0
 40
41.0
 40
42.0
 40
42.0
 40
42.0
 40
43.0
 40
43.0
 40
43.0
 40
44.0
 40
44.0
 40
44.0
 40
45.0
 40
45.0
 40
45.0
 40
46.0
 40
46.0
 40
46.0
 40
47.0
 40
47.0
 40
47.0
 40
48.0
 40
48.0
 40
48.0
 40
49.0
 40
49.0
 40
49.0
 40
50.0
 40
50.0
 40
50.0
 40
51.0
 40
51.0
 40
51.0
 40
52.0
 40
52.0
 40
52.0
 40
53.0
 40
53.0
 40
53.0
 40
54.0
 40
54.0
 40
54.0
 40
55.0
 40
55.0
 40
55.0
 40
56.0
 40
56.0
 40
56.0
 40
57.0
 40
57.0
 40
57.0
 40
58.0
 40
58.0
 40
58.0
 40
59.0
 40
59.0
 40
59.0
 40
60.0
 40
60.0
 40
60.0
 40
61.0
 40
61.0
 40
61.0
 40
62.0
 40
62.0
 40
62.0
 40
63.0
 40
63.0
 40
63.0
 40
64.0
 40
64.0
 40
64.0
 40
65.0
 40
65.0
 40
65.0
 40
66.0
 40
66.0
 40
66.0
 40
67.0
 40
67.0
 40
67.0
 40
68.0
 40
68.0
 40
68.0
 40
69.0
 40
69.0
 40
69.0
 40
70.0
 40
70.0
 40
70.0
 40
71.0
 40
71.0
 40
71.0
 40
72.0
 40
72.0
 40
72.0
 40
73.0
 40
73.0
 40
73.0
 40
74.0
 40
74.0
 40
74.0
 40
75.0
 40
75.0
 40
75.0
 40
76.0
 40
76.0
 40
76.0
 40
77.0
 40
77.0
 40
77.0
 40
78.0
 40
78.0
 40
78.0
 40
79.0
 40
79.0
 40
79.0
 40
80.0
 40
80.0
 40
80.0
 40
81.0
 40
81.0
 40
81.0
 40
82.0
 40
82.0
 40
82.0
 40
83.0
 40
83.0
 40
83.0
 40
84.0
 40
84.0
 40
84.0
 40
85.0
 40
85.0
 40
85.0
 40
86.0
 40
86.0
 40
86.0
 40
87.0
 40
87.0
 40
87.0
 40
88.0
 40
88.0
 40
88.0
 40
89.0
 40
89.0
 40
89.0
 40
90.0
 40
90.0
 40
90.0
 40
91.0
 40
91.0
 40
91.0
 40
92.0
 40
92.0
 40
92.0
 40
93.0
 40
93.0
 40
93.0
 40
94.0
 40
94.0
 40
94.0
 40
95.0
 40
95.0
 40
95.0
 40
96.0
 40
96.0
 40
96.0
 40
97.0
 40
97.0
 40
97.0
 40
98.0
 40
98.0
 40
98.0
 40
99.0
 40
99.0
 40
99.0
 40
100.0
 40
100.0
 40
100.0
 40
101.0
 40
101.0
 40
101.0
 40
102.0
 40
102.0
 40
102.0
 40
103.0
 40
103.0
 40
103.0
 40
104.0
 40
104.0
 40
104.0
 40
105.0
 40
105.0
 40
105.0
 40
106.0
 40
106.0
 40
106.0
 40
107.0
 40
107.0
 40
107.0
 40
108.0
 40
108.0
 40
108.0
 40
109.0
 40
109.0
 40
109.0
 40
110.0
 40
110.0
 40
110.0
 40
111.0
 40
111.0
 40
111.0
 40
112.0
 40
112.0
 40
112.0
 40
113.0
 40
113.0
 40
113.0
 40
114.0
 40
114.0
 40
114.0
 40
115.0
 40
115.0
 40
115.0
 40
116.0
 40
116.0
 40
116.0
 40
117.0
 40
117.0
 40
117.0
 40
118.0
 40
118.0
 40
118.0
 40
119.0
 40
119.0
 40
119.0
 40
120.0
 40
120.0
 40
120.0
 40
121.0
 40
121.0
 40
121.0
 40
122.0
 40
122.0
 40
122.0
 40
123.0
 40
123.0
 40
123.0
 40
124.0
 40
124.0
 40
124.0
 40
125.0
 40
125.0
 40
125.0
 40
126.0
 40
126.0
 40
126.0
 40
127.0
 40
127.0
 40
127.0
 40
128.0
 40
128.0
 40
128.0
 40
129.0
 40
129.0
 40
129.0
 40
130.0
 40
130.0
 40
130.0
 40
131.0
 40
131.0
 40
131.0
 40
132.0
 40
132.0
 40
132.0
 40
133.0
 40
133.0
 40
133.0
 40
134.0
 40
134.0
 40
134.0
 40
135.0
 40
135.0
 40
135.0
 40
136.0
 40
136.0
 40
136.0
 40
137.0
 40
137.0
 40
137.0
 40
138.0
 40
138.0
 40
138.0
 40
139.0
 40
139.0
 40
139.0
 40
140.0
 40
140.0
 40
140.0
 40
141.0
 40
141.0
 40
141.0
 40
142.0
 40
142.0
 40
142.0
 40
143.0
 40
143.0
 40
143.0
 40
144.0
 40
144.0
 40
144.0
 40
144.0
 10
5.692582902718237
 20
-0.6989537913361926
 30
0.0
 10
5.690026612952579
 20
-0.680520681461303
 30
0.0
 10
5.670950083204692
 20
-0.6713041265238517
 30
0.0
 10
5.662220440603556
 20
-0.6725127125015053
 30
0.0
 10
5.594835251202438
 20
-0.7925887725827527
 30
0.0
 10
5.527241385085719
 20
-0.8612781914561713
 30
0.0
 10
5.455473984657727
 20
-0.935488848428905
 30
0.0
 10
5.492931455101623
 20
-0.8205601473315861
 30
0.0
 10
5.537310036611744
 20
-0.705648835960561
 30
0.0
 10
5.586801197653181
 20
-0.5920156694723775
 30
0.0
 10
5.587705463420636
 20
-0.5414637351268033
 30
0.0
 10
5.51317309651141
 20
-0.5458633358799589
 30
0.0
 10
5.504443453910274
 20
-0.5470806167207531
 30
0.0
 10
5.459456231979756
 20
-0.643280582596137
 30
0.0
 10
5.377741908109834
 20
-0.8454274559363865
 30
0.0
 10
5.275542486661985
 20
-0.9070566459332036
 30
0.0
 10
5.311660948180992
 20
-0.7824157826989651
 30
0.0
 10
5.378002754004304
 20
-0.612066023892895
 30
0.0
 10
5.375446464238621
 20
-0.5936329140180052
 30
0.0
 10
5.372055467610708
 20
-0.576304051762981
 30
0.0
 10
5.325311883324199
 20
-0.5600533525383626
 30
0.0
 10
5.290532430730056
 20
-0.5658615211215824
 30
0.0
 10
5.279864920504703
 20
-0.5903506031794323
 30
0.0
 10
5.269537596800041
 20
-0.6150277116528665
 30
0.0
 10
5.259830868952601
 20
-0.6394135422108194
 30
0.0
 10
5.208314891655416
 20
-0.7345190421873818
 30
0.0
 10
5.124294255335346
 20
-0.8927905492222408
 30
0.0
 10
5.016835528540519
 20
-0.9468965088797807
 30
0.0
 10
5.032399333576399
 20
-0.8666342271556635
 30
0.0
 10
5.047754461896703
 20
-0.8061788436839126
 30
0.0
 10
5.080308029524809
 20
-0.7344288329822145
 30
0.0
 10
5.131033861133371
 20
-0.6581922728958666
 30
0.0
 10
5.210800535658008
 20
-0.4919117100433065
 30
0.0
 10
5.202192621140966
 20
-0.4298303871627746
 30
0.0
 10
5.197897358745599
 20
-0.3987897257225086
 30
0.0
 10
5.17254313780447
 20
-0.3657231611686408
 30
0.0
 10
5.114339723888179
 20
-0.373791994170473
 30
0.0
 10
5.090411460503421
 20
-0.4364297882925206
 30
0.0
 10
5.052275790733953
 20
-0.546515450616097
 30
0.0
 10
5.016661631277556
 20
-0.6532883700800892
 30
0.0
 10
5.016661631277556
 20
-0.6532883700800892
 30
0.0
 10
5.010314381179114
 20
-0.650210388525516
 30
0.0
 10
5.010314381179114
 20
-0.650210388525516
 30
0.0
 10
5.002384665987645
 20
-0.6216477630825794
 30
0.0
 10
4.971900475788894
 20
-0.5942415544384023
 30
0.0
 10
4.916601146164212
 20
-0.6019104237354137
 30
0.0
 10
4.84888120453186
 20
-0.6112997890779373
 30
0.0
 10
4.763657416523629
 20
-0.7112776729913498
 30
0.0
 10
4.738436879103397
 20
-0.8258085840996171
 30
0.0
 10
4.693467046899185
 20
-0.8981172397586129
 30
0.0
 10
4.63683414263912
 20
-0.9716366551110442
 30
0.0
 10
4.572562801103029
 20
-1.008525698876585
 30
0.0
 10
4.597343161076373
 20
-0.9091868874045934
 30
0.0
 10
4.655737861981909
 20
-0.7527923839519164
 30
0.0
 10
4.688117532347051
 20
-0.6939194655731928
 30
0.0
 10
4.684778704898008
 20
-0.6627483811857043
 30
0.0
 10
4.604699015300032
 20
-0.6343074838268496
 30
0.0
 10
4.583622667027965
 20
-0.6747994615095649
 30
0.0
 10
4.583622667027965
 20
-0.6747994615095649
 30
0.0
 10
4.566024264015343
 20
-0.7118395785223204
 30
0.0
 10
4.566024264015343
 20
-0.7118395785223204
 30
0.0
 10
4.55811193855018
 20
-0.6832769530793837
 30
0.0
 10
4.527610358625124
 20
-0.6558707444352068
 30
0.0
 10
4.473284853673072
 20
-0.6634004959218424
 30
0.0
 10
4.405581214909136
 20
-0.6727909481222569
 30
0.0
 10
4.314676420691208
 20
-0.7803420578380458
 30
0.0
 10
4.287829943862208
 20
-0.893679598979184
 30
0.0
 10
4.219463321783198
 20
-1.000549248795702
 30
0.0
 10
4.13922169035906
 20
-1.078006350296518
 30
0.0
 10
4.044749828534464
 20
-1.08765764839139
 30
0.0
 10
4.036020185933327
 20
-1.088874929232184
 30
0.0
 10
4.026055872765103
 20
-1.08827498367494
 30
0.0
 10
4.015952441786504
 20
-1.086709908308207
 30
0.0
 10
4.012474496527097
 20
-1.054564999248075
 30
0.0
 10
4.015395970545001
 20
-1.01856826581315
 30
0.0
 10
4.024264730956499
 20
-0.9827367347780358
 30
0.0
 10
4.034455110566581
 20
-0.9991178569498768
 30
0.0
 10
4.059583265065852
 20
-1.016394550026007
 30
0.0
 10
4.083841933250255
 20
-1.013038332850682
 30
0.0
 10
4.15367907405928
 20
-1.00335225530321
 30
0.0
 10
4.251704961195856
 20
-0.8760594588086784
 30
0.0
 10
4.239862557587545
 20
-0.7907019872795268
 30
0.0
 10
4.237184539737793
 20
-0.7713037475951473
 30
0.0
 10
4.221168601818198
 20
-0.7557225528329733
 30
0.0
 10
4.203344132363705
 20
-0.7483058345672664
 30
0.0
 10
4.195257909635567
 20
-0.7256991903810786
 30
0.0
 10
4.176111820982492
 20
-0.7016578937753921
 30
0.0
 10
4.118882231738843
 20
-0.7095963038300017
 30
0.0
 10
4.033716047198961
 20
-0.72140284112782
 30
0.0
 10
3.94171243965065
 20
-0.8459687111673904
 30
0.0
 10
3.920587182773387
 20
-0.9567597442639023
 30
0.0
 10
3.883017765966466
 20
-1.012963339656027
 30
0.0
 10
3.838655487324761
 20
-1.068022473686218
 30
0.0
 10
3.79040769171354
 20
-1.102186764712592
 30
0.0
 10
3.749489665736544
 20
-1.085127443215166
 30
0.0
 10
3.71563186863615
 20
-1.033462566386586
 30
0.0
 10
3.695320668321175
 20
-0.9868494050472993
 30
0.0
 10
3.851689087184405
 20
-0.9167166388912165
 30
0.0
 10
3.950167107204695
 20
-0.7142306658881681
 30
0.0
 10
3.931507930887947
 20
-0.6367333506452849
 30
0.0
 10
3.921126264288596
 20
-0.6045623569957065
 30
0.0
 10
3.904814701021943
 20
-0.5939720136807914
 30
0.0
 10
3.873704480676489
 20
-0.583451229271077
 30
0.0
 10
3.859931817449213
 20
-0.5626183371671863
 30
0.0
 10
3.84075094934355
 20
-0.5455068464908663
 30
0.0
 10
3.819170299008887
 20
-0.5396030344130117
 30
0.0
 10
3.711249657609288
 20
-0.5169963902268238
 30
0.0
 10
3.520501749856761
 20
-0.5602533343907857
 30
0.0
 10
3.4633069400657
 20
-0.6255256720468322
 30
0.0
 10
3.44336092400297
 20
-0.6599312455255762
 30
0.0
 10
3.468836873028168
 20
-0.6939629398889338
 30
0.0
 10
3.49149568639325
 20
-0.7076312647584346
 30
0.0
 10
3.525231755409575
 20
-0.6871374723173301
 30
0.0
 10
3.565332464250597
 20
-0.669712966567671
 30
0.0
 10
3.608041632036197
 20
-0.6568706536972841
 30
0.0
 10
3.526483815702944
 20
-0.8530615457808102
 30
0.0
 10
3.431553299847261
 20
-1.138105244379189
 30
0.0
 10
3.439622132849093
 20
-1.196308658295468
 30
0.0
 10
3.447291002146105
 20
-1.251599293056996
 30
0.0
 10
3.502364265328917
 20
-1.263737322012351
 30
0.0
 10
3.5285531931323
 20
-1.260102869216262
 30
0.0
 10
3.545595124903432
 20
-1.190509184575401
 30
0.0
 10
3.572966554095008
 20
-1.102682371912061
 30
0.0
 10
3.60143353604331
 20
-1.015681571247834
 30
0.0
 10
3.640143066780587
 20
-1.166528752011737
 30
0.0
 10
3.735769171688162
 20
-1.22148898197362
 30
0.0
 10
3.774409143520238
 20
-1.222062842941429
 30
0.0
 10
3.781591100480934
 20
-1.224027882012996
 30
0.0
 10
3.787555776600824
 20
-1.224193084412819
 30
0.0
 10
3.794337769856686
 20
-1.223254039192776
 30
0.0
 10
3.834229801982145
 20
-1.216716588962969
 30
0.0
 10
3.885219740058839
 20
-1.147796756216116
 30
0.0
 10
3.931216652972466
 20
-1.066238939882876
 30
0.0
 10
3.940091934531337
 20
-1.08113106674053
 30
0.0
 10
3.952229963486691
 20
-1.091984429665685
 30
0.0
 10
3.966183045124303
 20
-1.098552311916503
 30
0.0
 10
3.971554296834306
 20
-1.1150432067356
 30
0.0
 10
3.979316635910158
 20
-1.12915170905199
 30
0.0
 10
3.988817947615719
 20
-1.14103215268656
 30
0.0
 10
3.981665335818156
 20
-1.140451770571392
 30
0.0
 10
3.974484465715364
 20
-1.14059849638703
 30
0.0
 10
3.967728557048948
 20
-1.141537541607072
 30
0.0
 10
3.866833365073363
 20
-1.155518881549912
 30
0.0
 10
3.728898056085022
 20
-1.322947166338079
 30
0.0
 10
3.74759201185437
 20
-1.457778409182386
 30
0.0
 10
3.763190596342838
 20
-1.570307328050717
 30
0.0
 10
3.921541444003942
 20
-1.592835718468564
 30
0.0
 10
3.93136663936179
 20
-1.663646683950219
 30
0.0
 10
3.936200983272367
 20
-1.698573949217878
 30
0.0
 10
3.910846762331238
 20
-1.736692229261052
 30
0.0
 10
3.81577712866518
 20
-1.749873641794226
 30
0.0
 10
3.756599890076258
 20
-1.758072897743293
 30
0.0
 10
3.694309890480162
 20
-1.750890940782609
 30
0.0
 10
3.664903863311817
 20
-1.731249244930066
 30
0.0
 10
3.674537771680409
 20
-1.84360426653542
 30
0.0
 10
3.775815537634533
 20
-1.868123780614294
 30
0.0
 10
3.863129353372086
 20
-1.856003141385233
 30
0.0
 10
3.888941141486422
 20
-1.852427378915397
 30
0.0
 10
3.91212490721408
 20
-1.84633010613249
 30
0.0
 10
3.932775207191841
 20
-1.838266707420113
 30
0.0
 10
3.945226251220548
 20
-1.8491994109715
 30
0.0
 10
3.959804276146959
 20
-1.855797725243355
 30
0.0
 10
3.975416989788048
 20
-1.853633791177256
 30
0.0
 10
4.016133947054742
 20
-1.847987564420186
 30
0.0
 10
4.073329843703681
 20
-1.773739954279058
 30
0.0
 10
4.123598108139037
 20
-1.689281314227881
 30
0.0
 10
4.131579992509387
 20
-1.699335836601272
 30
0.0
 10
4.141249767188457
 20
-1.707040572208762
 30
0.0
 10
4.152042266071564
 20
-1.712120546003297
 30
0.0
 10
4.166369226824549
 20
-1.756108945529629
 30
0.0
 10
4.197229469854506
 20
-1.783591234226353
 30
0.0
 10
4.235417308802854
 20
-1.793675101762864
 30
0.0
 10
4.070331202775328
 20
-1.899302473007032
 30
0.0
 10
3.957999005185747
 20
-2.171312571745767
 30
0.0
 10
3.973907344173868
 20
-2.285969558369692
 30
0.0
 10
3.981297977850128
 20
-2.339321238649101
 30
0.0
 10
4.002826459005897
 20
-2.359075967722561
 30
0.0
 10
4.02939796078782
 20
-2.36526671028432
 30
0.0
 10
4.040527385617944
 20
-2.417122874102183
 30
0.0
 10
4.074141726550175
 20
-2.459918990519264
 30
0.0
 10
4.128467231502214
 20
-2.452389239032628
 30
0.0
 10
4.186670645418492
 20
-2.444303016304489
 30
0.0
 10
4.246717370322269
 20
-2.356884862209136
 30
0.0
 10
4.290278634696429
 20
-2.271762151984995
 30
0.0
 10
4.228145142637004
 20
-2.429660866762358
 30
0.0
 10
4.181227661087519
 20
-2.554814726922359
 30
0.0
 10
4.186618476239611
 20
-2.593611206291131
 30
0.0
 10
4.191713666044658
 20
-2.630477426040898
 30
0.0
 10
4.240509238034216
 20
-2.654353520246774
 30
0.0
 10
4.272384606336749
 20
-2.648945315368387
 30
0.0
 10
4.280368664422895
 20
-2.61248014618132
 30
0.0
 10
4.293830486292614
 20
-2.565443110263547
 30
0.0
 10
4.309336687860119
 20
-2.514634677455092
 30
0.0
 10
4.309525801133607
 20
-2.514610766581427
 30
0.0
 10
4.309710566975506
 20
-2.51462706944983
 30
0.0
 10
4.309900767106885
 20
-2.514600984860383
 30
0.0
 10
4.353097934086691
 20
-2.508610224151046
 30
0.0
 10
4.414840157304424
 20
-2.425424294693256
 30
0.0
 10
4.467179972884929
 20
-2.334729264048772
 30
0.0
 10
4.480065760071057
 20
-2.35406229225954
 30
0.0
 10
4.498415181888125
 20
-2.364734149916469
 30
0.0
 10
4.520883795121841
 20
-2.366310093862151
 30
0.0
 10
4.527961413724748
 20
-2.39597696692494
 30
0.0
 10
4.545298970842926
 20
-2.421244239234587
 30
0.0
 10
4.593798917485452
 20
-2.414531804883912
 30
0.0
 10
4.637464520217387
 20
-2.408480180132528
 30
0.0
 10
4.679599827035164
 20
-2.363075604770883
 30
0.0
 10
4.712814204262561
 20
-2.3031158284986
 30
0.0
 10
4.727039000373578
 20
-2.313010582761636
 30
0.0
 10
4.740585597158997
 20
-2.318036213661483
 30
0.0
 10
4.751262889105393
 20
-2.316558086926231
 30
0.0
 10
4.814318036658556
 20
-2.307828444325108
 30
0.0
 10
4.926707837716498
 20
-2.155807457036139
 30
0.0
 10
4.922134339700379
 20
-2.122819146250612
 30
0.0
 10
4.917665180042023
 20
-2.097743160930236
 30
0.0
 10
4.89961464414566
 20
-2.074527876323651
 30
0.0
 10
4.871269390281441
 20
-2.062650693262754
 30
0.0
 10
4.833585853395713
 20
-2.133113864218469
 30
0.0
 10
4.789711573948201
 20
-2.19456915695231
 30
0.0
 10
4.753436604892512
 20
-2.225314193045518
 30
0.0
 10
4.753436604892512
 20
-2.225314193045518
 30
0.0
 10
4.748184907550795
 20
-2.2230709183532
 30
0.0
 10
4.748184907550795
 20
-2.2230709183532
 30
0.0
 10
4.770322029126974
 20
-2.161667794798253
 30
0.0
 10
4.781242777241535
 20
-2.097864889014318
 30
0.0
 10
4.77479118878533
 20
-2.051312591717065
 30
0.0
 10
4.768878681844322
 20
-2.00862081365776
 30
0.0
 10
4.744063542418391
 20
-1.979440852931285
 30
0.0
 10
4.711005672727676
 20
-1.96919830414231
 30
0.0
 10
4.70225864040026
 20
-1.941739926319239
 30
0.0
 10
4.674591585861612
 20
-1.934697087168931
 30
0.0
 10
4.646455008712969
 20
-1.938592385859478
 30
0.0
 10
4.549722482469734
 20
-1.952011820271347
 30
0.0
 10
4.452029173848587
 20
-2.10756726943018
 30
0.0
 10
4.446998108659272
 20
-2.238920567015081
 30
0.0
 10
4.421705838618083
 20
-2.277340993552671
 30
0.0
 10
4.393122562875179
 20
-2.315187559122453
 30
0.0
 10
4.361956912777158
 20
-2.346837947841019
 30
0.0
 10
4.391882458018623
 20
-2.251037945670456
 30
0.0
 10
4.416190034808247
 20
-2.167318368986912
 30
0.0
 10
4.412424072207033
 20
-2.140139313642483
 30
0.0
 10
4.407589728296443
 20
-2.105220743237977
 30
0.0
 10
4.377035979192493
 20
-2.091656756726264
 30
0.0
 10
4.319806389948856
 20
-2.099586471917721
 30
0.0
 10
4.269932654928854
 20
-2.203403137911222
 30
0.0
 10
4.172689305475652
 20
-2.307828444325108
 30
0.0
 10
4.073428747771989
 20
-2.333460900886987
 30
0.0
 10
4.082540964351665
 20
-2.171040857272374
 30
0.0
 10
4.22990150499302
 20
-1.900474105816304
 30
0.0
 10
4.364132802280084
 20
-1.827489424547518
 30
0.0
 10
4.342343475229856
 20
-1.870059474522729
 30
0.0
 10
4.316171937152754
 20
-1.93794896598648
 30
0.0
 10
4.321145398873719
 20
-1.973841361063629
 30
0.0
 10
4.326936177730633
 20
-2.015559314450292
 30
0.0
 10
4.361628681693294
 20
-2.030514479065775
 30
0.0
 10
4.4043204597526
 20
-2.024601972124767
 30
0.0
 10
4.425970668992451
 20
-1.945461327746822
 30
0.0
 10
4.466401782633132
 20
-1.844948709749764
 30
0.0
 10
4.463306411352252
 20
-1.822637690910634
 30
0.0
 10
4.461567438722542
 20
-1.810030139345258
 30
0.0
 10
4.442960431584677
 20
-1.789875446566953
 30
0.0
 10
4.409033075579095
 20
-1.787649561600928
 30
0.0
 10
4.402201086860133
 20
-1.771189098802855
 30
0.0
 10
4.389104449242672
 20
-1.756261105634722
 30
0.0
 10
4.365526154099623
 20
-1.752599481391295
 30
0.0
 10
4.410200360956802
 20
-1.711096725867555
 30
0.0
 10
4.456392908291264
 20
-1.645920031706156
 30
0.0
 10
4.495588264506978
 20
-1.578860899673082
 30
0.0
 10
4.489698581581731
 20
-1.608886435840759
 30
0.0
 10
4.487095556926634
 20
-1.63329943784605
 30
0.0
 10
4.489211669245403
 20
-1.64854370666122
 30
0.0
 10
4.492985239851881
 20
-1.675706459137245
 30
0.0
 10
4.504271172218674
 20
-1.692922288171353
 30
0.0
 10
4.531538263052476
 20
-1.697052348166886
 30
0.0
 10
4.545536992721609
 20
-1.726745305819135
 30
0.0
 10
4.571708530798686
 20
-1.758707622753137
 30
0.0
 10
4.599705990136979
 20
-1.75383849938996
 30
0.0
 10
4.665665221981751
 20
-1.744691503357709
 30
0.0
 10
4.768525453028915
 20
-1.588062238600022
 30
0.0
 10
4.764960559138014
 20
-1.548022393801021
 30
0.0
 10
4.76212603375158
 20
-1.527650329444011
 30
0.0
 10
4.747101310230922
 20
-1.511938711734602
 30
0.0
 10
4.727624816778214
 20
-1.499809377642401
 30
0.0
 10
4.727624816778214
 20
-1.499809377642401
 30
0.0
 10
4.722773083141318
 20
-1.500487576967986
 30
0.0
 10
4.722773083141318
 20
-1.500487576967986
 30
0.0
 10
4.701922801311134
 20
-1.549839620199059
 30
0.0
 10
4.640432729124718
 20
-1.619668066144944
 30
0.0
 10
4.576455926077793
 20
-1.65029137415407
 30
0.0
 10
4.594802087321214
 20
-1.568655304052489
 30
0.0
 10
4.628607715242702
 20
-1.463117055155585
 30
0.0
 10
4.657492050622143
 20
-1.379029033646121
 30
0.0
 10
4.687419769579391
 20
-1.373890369525333
 30
0.0
 10
4.714443404245028
 20
-1.369160363972532
 30
0.0
 10
4.731502725742454
 20
-1.363830412862487
 30
0.0
 10
4.759100221375901
 20
-1.356048510344547
 30
0.0
 10
4.777359433987814
 20
-1.295184468304809
 30
0.0
 10
4.762299931014568
 20
-1.286393961661638
 30
0.0
 10
4.756909115862476
 20
-1.28318555715983
 30
0.0
 10
4.727537868146706
 20
-1.285281019178632
 30
0.0
 10
4.689576095640228
 20
-1.289558891847706
 30
0.0
 10
4.698810040303973
 20
-1.263561251033593
 30
0.0
 10
4.706096335622432
 20
-1.244754262043317
 30
0.0
 10
4.70833961031475
 20
-1.2395025647016
 30
0.0
 10
4.717556165252214
 20
-1.220426034953713
 30
0.0
 10
4.677125051611508
 20
-1.185498769686054
 30
0.0
 10
4.630555364587963
 20
-1.191950358142271
 30
0.0
 10
4.614922000646907
 20
-1.22179982333119
 30
0.0
 10
4.59758444352873
 20
-1.260787589689206
 30
0.0
 10
4.580925085736149
 20
-1.304618394820965
 30
0.0
 10
4.53449451652298
 20
-1.312052502812965
 30
0.0
 10
4.496098000859042
 20
-1.320338707393514
 30
0.0
 10
4.490689795980668
 20
-1.324051413957944
 30
0.0
 10
4.46999602168714
 20
-1.33878920699471
 30
0.0
 10
4.499123813234746
 20
-1.392088718095212
 30
0.0
 10
4.524617151986249
 20
-1.390532337591645
 30
0.0
 10
4.529299335791721
 20
-1.390470386691694
 30
0.0
 10
4.534269536939013
 20
-1.390289968281359
 30
0.0
 10
4.53920169806002
 20
-1.389986734929064
 30
0.0
 10
4.458125359773627
 20
-1.553966419620944
 30
0.0
 10
4.357095397419218
 20
-1.688304228981565
 30
0.0
 10
4.230609049481725
 20
-1.701225882478184
 30
0.0
 10
4.221879406880589
 20
-1.702443163318978
 30
0.0
 10
4.211915093712378
 20
-1.701843217761734
 30
0.0
 10
4.201811662733777
 20
-1.700278142395
 30
0.0
 10
4.198333717474358
 20
-1.668133233334869
 30
0.0
 10
4.201255191492274
 20
-1.632136499899932
 30
0.0
 10
4.210123951903774
 20
-1.59630496886483
 30
0.0
 10
4.220314331513856
 20
-1.612686091036671
 30
0.0
 10
4.245442486013113
 20
-1.629962784112801
 30
0.0
 10
4.269701154197517
 20
-1.626606566937463
 30
0.0
 10
4.339538295006554
 20
-1.616920489390004
 30
0.0
 10
4.437564182143129
 20
-1.489627692895472
 30
0.0
 10
4.425721778534808
 20
-1.404270221366308
 30
0.0
 10
4.42304376068508
 20
-1.384871981681929
 30
0.0
 10
4.40702782276546
 20
-1.369290786919767
 30
0.0
 10
4.38920335331098
 20
-1.36187406865406
 30
0.0
 10
4.381117130582829
 20
-1.339267424467872
 30
0.0
 10
4.361971041929766
 20
-1.315226127862174
 30
0.0
 10
4.30474145268613
 20
-1.323164537916796
 30
0.0
 10
4.214021424310102
 20
-1.335741657461148
 30
0.0
 10
4.115403199621546
 20
-1.476293033399303
 30
0.0
 10
4.103120618566347
 20
-1.59181841948018
 30
0.0
 10
4.086026517616321
 20
-1.616873754500577
 30
0.0
 10
4.067640142630858
 20
-1.64143022174782
 30
0.0
 10
4.04799301248886
 20
-1.663830362934239
 30
0.0
 10
4.034730085613672
 20
-1.572049561254099
 30
0.0
 10
3.866588822047308
 20
-1.545942147792731
 30
0.0
 10
3.855582212159169
 20
-1.466534136372957
 30
0.0
 10
3.846574333937282
 20
-1.401548729200828
 30
0.0
 10
3.92842777561758
 20
-1.264630719200858
 30
0.0
 10
4.027340538795303
 20
-1.193576297551039
 30
0.0
 10
4.032140103253292
 20
-1.306609518481979
 30
0.0
 10
3.975119190725207
 20
-1.394592838682001
 30
0.0
 10
3.929366820837622
 20
-1.442466755177823
 30
0.0
 10
3.937313925755385
 20
-1.464099574691381
 30
0.0
 10
3.959555385689328
 20
-1.474855120406106
 30
0.0
 10
3.988665787510627
 20
-1.470820703905196
 30
0.0
 10
4.085665680795665
 20
-1.457369750614412
 30
0.0
 10
4.141278025493685
 20
-1.337945805269303
 30
0.0
 10
4.128096612960513
 20
-1.242884866466385
 30
0.0
 10
4.124296957764601
 20
-1.215478657822195
 30
0.0
 10
4.110988382857878
 20
-1.196631455089864
 30
0.0
 10
4.094373586238918
 20
-1.183896741150938
 30
0.0
 10
4.097426570061947
 20
-1.183658719272241
 30
0.0
 10
4.100399126400867
 20
-1.183756536482671
 30
0.0
 10
4.10349232396594
 20
-1.183327227614705
 30
0.0
 10
4.159027501753522
 20
-1.175627926296683
 30
0.0
 10
4.227528894211357
 20
-1.096212306871659
 30
0.0
 10
4.28565622807509
 20
-1.004823860891103
 30
0.0
 10
4.291578516737141
 20
-1.025890427442101
 30
0.0
 10
4.302221029230926
 20
-1.042058525466801
 30
0.0
 10
4.317420736872464
 20
-1.050826208094211
 30
0.0
 10
4.324863539727605
 20
-1.090326971377989
 30
0.0
 10
4.354686920327089
 20
-1.148478216115387
 30
0.0
 10
4.404160691642245
 20
-1.141617969091195
 30
0.0
 10
4.433253703737238
 20
-1.137583552590273
 30
0.0
 10
4.467511464542465
 20
-1.092300705312709
 30
0.0
 10
4.499752017097231
 20
-1.032462657124496
 30
0.0
 10
4.503056065093662
 20
-1.034966777711285
 30
0.0
 10
4.506238385006023
 20
-1.036505768488572
 30
0.0
 10
4.509420704918385
 20
-1.038044759265858
 30
0.0
 10
4.518150347519521
 20
-1.072424248155168
 30
0.0
 10
4.549660531569796
 20
-1.121445886586596
 30
0.0
 10
4.59040466028384
 20
-1.115794225540046
 30
0.0
 10
4.632843200453938
 20
-1.109906716330594
 30
0.0
 10
4.68792515849989
 20
-1.034629851764268
 30
0.0
 10
4.73768042600947
 20
-0.9467432619167842
 30
0.0
 10
4.744799345212337
 20
-0.9703313387808646
 30
0.0
 10
4.758073140666485
 20
-0.9874352214519224
 30
0.0
 10
4.776353003578379
 20
-0.9950747455858011
 30
0.0
 10
4.783969703696483
 20
-1.028619527612844
 30
0.0
 10
4.81254102400256
 20
-1.084970935678497
 30
0.0
 10
4.862014795317716
 20
-1.078110688654306
 30
0.0
 10
4.887229898448468
 20
-1.074606658805439
 30
0.0
 10
4.919818245529187
 20
-1.031532306767607
 30
0.0
 10
4.951363209032049
 20
-0.9737723308719017
 30
0.0
 10
4.955641081701136
 20
-0.9761460285114429
 30
0.0
 10
4.961727485905107
 20
-0.9772763607207555
 30
0.0
 10
4.966857455162754
 20
-0.9785458107404439
 30
0.0
 10
4.977517357382845
 20
-1.012655758872143
 30
0.0
 10
5.008488459917922
 20
-1.05779948833933
 30
0.0
 10
5.046328504340358
 20
-1.052556485860767
 30
0.0
 10
5.088293174468845
 20
-1.046736361840708
 30
0.0
 10
5.143189279815007
 20
-0.9695009793501868
 30
0.0
 10
5.193040190819247
 20
-0.8799949712412802
 30
0.0
 10
5.19280325579843
 20
-0.888514850268949
 30
0.0
 10
5.193010845656115
 20
-0.8964999952129852
 30
0.0
 10
5.193984670328746
 20
-0.9035352263580433
 30
0.0
 10
5.196680077904804
 20
-0.9229334660424229
 30
0.0
 10
5.204383726654391
 20
-0.9357062200076218
 30
0.0
 10
5.21542620285302
 20
-0.9440619834933588
 30
0.0
 10
5.22278205707668
 20
-0.975667811038281
 30
0.0
 10
5.240902151878243
 20
-1.01369044758682
 30
0.0
 10
5.289141252626298
 20
-1.005021669027731
 30
0.0
 10
5.340406165750058
 20
-0.9969267514364395
 30
0.0
 10
5.390818982285231
 20
-0.8970053841334977
 30
0.0
 10
5.423685564986701
 20
-0.8202732168476814
 30
0.0
 10
5.395096854954318
 20
-0.8993703869098983
 30
0.0
 10
5.36916877304538
 20
-0.9761286387851492
 30
0.0
 10
5.351292134412031
 20
-1.046826571045876
 30
0.0
 10
5.305261528903682
 20
-1.092761533059577
 30
0.0
 10
5.264378282379286
 20
-1.133027444300448
 30
0.0
 10
5.270829870835491
 20
-1.17958843646084
 30
0.0
 10
5.276742377776499
 20
-1.222271519656993
 30
0.0
 10
5.316130107839348
 20
-1.24251316106678
 30
0.0
 10
5.375307346428245
 20
-1.234313905117713
 30
0.0
 10
5.386906293868403
 20
-1.175362732970648
 30
0.0
 10
5.401548443410522
 20
-1.116976726928252
 30
0.0
 10
5.418138242297927
 20
-1.058321180128246
 30
0.0
 10
5.568541985041267
 20
-0.9237681729046774
 30
0.0
 10
5.702547215886473
 20
-0.7707298866273378
 30
0.0
 10
5.692582902718237
 20
-0.6989537913361926
 30
0.0
  0
SPLINE
  5
4B
330
1F
100
AcDbEntity
  8
Layer 1
 62
     7
420
 16777215
370
     9
100
AcDbSpline
210
0.0
220
0.0
230
1.0
 70
    11
 71
     3
 72
    17
 73
    13
 74
     0
 42
0.0000000001
 43
0.0000000001
 12
1.0
 22
0.0
 32
0.0
 13
1.0
 23
0.0
 33
0.0
 40
0.0
 40
0.0
 40
0.0
 40
0.0
 40
1.0
 40
1.0
 40
1.0
 40
2.0
 40
2.0
 40
2.0
 40
3.0
 40
3.0
 40
3.0
 40
4.0
 40
4.0
 40
4.0
 40
4.0
 10
3.63369147832437
 20
-0.9202554481926705
 30
0.0
 10
3.677444029687788
 20
-0.7866501810523105
 30
0.0
 10
3.717109995371402
 20
-0.6733821988163602
 30
0.0
 10
3.714814551500189
 20
-0.6568967382867311
 30
0.0
 10
3.713614660385689
 20
-0.6481670956856078
 30
0.0
 10
3.710588848009997
 20
-0.6406721236515724
 30
0.0
 10
3.706745718498344
 20
-0.6342813992374027
 30
0.0
 10
3.754132722657864
 20
-0.62672556316132
 30
0.0
 10
3.8001285487136
 20
-0.6233171768071012
 30
0.0
 10
3.840003191112777
 20
-0.6256908744466424
 30
0.0
 10
3.815222831139458
 20
-0.7250296859186467
 30
0.0
 10
3.751454704808111
 20
-0.8426277100025648
 30
0.0
 10
3.63369147832437
 20
-0.9202554481926705
 30
0.0
  0
SPLINE
  5
4C
330
1F
100
AcDbEntity
  8
Layer 1
 62
     7
420
 16777215
370
     9
100
AcDbSpline
210
0.0
220
0.0
230
1.0
 70
    11
 71
     3
 72
    14
 73
    10
 74
     0
 42
0.0000000001
 43
0.0000000001
 12
1.0
 22
0.0
 32
0.0
 13
1.0
 23
0.0
 33
0.0
 40
0.0
 40
0.0
 40
0.0
 40
0.0
 40
1.0
 40
1.0
 40
1.0
 40
2.0
 40
2.0
 40
2.0
 40
3.0
 40
3.0
 40
3.0
 40
3.0
 10
4.696433082090733
 20
-1.97813662345901
 30
0.0
 10
4.703684597956604
 20
-2.030514479065775
 30
0.0
 10
4.698850254046016
 20
-2.095447717059023
 30
0.0
 10
4.682538690779388
 20
-2.156050913204303
 30
0.0
 10
4.670713676897372
 20
-2.134939785479661
 30
0.0
 10
4.661531901412521
 20
-2.111498434431218
 30
0.0
 10
4.659549472614647
 20
-2.090022122454343
 30
0.0
 10
4.653810862936628
 20
-2.034461946935203
 30
0.0
 10
4.671844009106684
 20
-1.993404803147832
 30
0.0
 10
4.696433082090733
 20
-1.97813662345901
 30
0.0
  0
SPLINE
  5
4D
330
1F
100
AcDbEntity
  8
Layer 1
 62
     7
420
 16777215
370
     9
100
AcDbSpline
210
0.0
220
0.0
230
1.0
 70
    11
 71
     3
 72
    17
 73
    13
 74
     0
 42
0.0000000001
 43
0.0000000001
 12
1.0
 22
0.0
 32
0.0
 13
1.0
 23
0.0
 33
0.0
 40
0.0
 40
0.0
 40
0.0
 40
0.0
 40
1.0
 40
1.0
 40
1.0
 40
2.0
 40
2.0
 40
2.0
 40
3.0
 40
3.0
 40
3.0
 40
4.0
 40
4.0
 40
4.0
 40
4.0
 10
4.607919375238654
 20
-2.116958808488499
 30
0.0
 10
4.613970999990038
 20
-2.160607021494141
 30
0.0
 10
4.631656351634168
 20
-2.202637989954142
 30
0.0
 10
4.652280567022469
 20
-2.237347883643098
 30
0.0
 10
4.626595941281721
 20
-2.287378126199744
 30
0.0
 10
4.590703546204572
 20
-2.327948357650826
 30
0.0
 10
4.54354260848691
 20
-2.344381649001535
 30
0.0
 10
4.540395068027136
 20
-2.236061043897116
 30
0.0
 10
4.570131499995139
 20
-2.143947663701536
 30
0.0
 10
4.607380293723458
 20
-2.077484129794155
 30
0.0
 10
4.606215182061558
 20
-2.090491645064364
 30
0.0
 10
4.606163012882663
 20
-2.104351256923122
 30
0.0
 10
4.607919375238654
 20
-2.116958808488499
 30
0.0
  0
SPLINE
  5
4E
330
1F
100
AcDbEntity
  8
Layer 1
 62
     7
420
 16777215
370
     9
100
AcDbSpline
210
0.0
220
0.0
230
1.0
 70
    11
 71
     3
 72
    11
 73
     7
 74
     0
 42
0.0000000001
 43
0.0000000001
 12
1.0
 22
0.0
 32
0.0
 13
1.0
 23
0.0
 33
0.0
 40
0.0
 40
0.0
 40
0.0
 40
0.0
 40
1.0
 40
1.0
 40
1.0
 40
2.0
 40
2.0
 40
2.0
 40
2.0
 10
4.361014606983417
 20
-1.379628979203365
 30
0.0
 10
4.343259696434112
 20
-1.451292041273581
 30
0.0
 10
4.271787921353178
 20
-1.556117311392301
 30
0.0
 10
4.214627891014717
 20
-1.578871768252017
 30
0.0
 10
4.239095235914684
 20
-1.49144491929351
 30
0.0
 10
4.294690190886412
 20
-1.407609048815352
 30
0.0
 10
4.361014606983417
 20
-1.379628979203365
 30
0.0
  0
SPLINE
  5
4F
330
1F
100
AcDbEntity
  8
Layer 1
 62
     7
420
 16777215
370
     9
100
AcDbSpline
210
0.0
220
0.0
230
1.0
 70
    11
 71
     3
 72
    11
 73
     7
 74
     0
 42
0.0000000001
 43
0.0000000001
 12
1.0
 22
0.0
 32
0.0
 13
1.0
 23
0.0
 33
0.0
 40
0.0
 40
0.0
 40
0.0
 40
0.0
 40
1.0
 40
1.0
 40
1.0
 40
2.0
 40
2.0
 40
2.0
 40
2.0
 10
4.175155386036155
 20
-0.7660607451165712
 30
0.0
 10
4.157400475486851
 20
-0.8377238071867875
 30
0.0
 10
4.085928700405904
 20
-0.9425490773055192
 30
0.0
 10
4.028768670067444
 20
-0.9653035341652235
 30
0.0
 10
4.053236014967423
 20
-0.8778766852067166
 30
0.0
 10
4.108830969939137
 20
-0.7940408147285577
 30
0.0
 10
4.175155386036155
 20
-0.7660607451165712
 30
0.0
  0
SPLINE
  5
50
330
1F
100
AcDbEntity
  8
Layer 1
 62
     7
420
 16777215
370
     9
100
AcDbSpline
210
0.0
220
0.0
230
1.0
 70
    11
 71
     3
 72
    11
 73
     7
 74
     0
 42
0.0000000001
 43
0.0000000001
 12
1.0
 22
0.0
 32
0.0
 13
1.0
 23
0.0
 33
0.0
 40
0.0
 40
0.0
 40
0.0
 40
0.0
 40
1.0
 40
1.0
 40
1.0
 40
2.0
 40
2.0
 40
2.0
 40
2.0
 10
4.354339125801137
 20
-1.031862711567252
 30
0.0
 10
4.359121300532832
 20
-0.9451836208395181
 30
0.0
 10
4.423289390569026
 20
-0.7662346423795472
 30
0.0
 10
4.540339638274569
 20
-0.726273051348888
 30
0.0
 10
4.527349512730678
 20
-0.7893803680809444
 30
0.0
 10
4.464955174776782
 20
-0.9740070921769125
 30
0.0
 10
4.354339125801137
 20
-1.031862711567252
 30
0.0
  0
SPLINE
  5
51
330
1F
100
AcDbEntity
  8
Layer 1
 62
     7
420
 16777215
370
     9
100
AcDbSpline
210
0.0
220
0.0
230
1.0
 70
    11
 71
     3
 72
    11
 73
     7
 74
     0
 42
0.0000000001
 43
0.0000000001
 12
1.0
 22
0.0
 32
0.0
 13
1.0
 23
0.0
 33
0.0
 40
0.0
 40
0.0
 40
0.0
 40
0.0
 40
1.0
 40
1.0
 40
1.0
 40
2.0
 40
2.0
 40
2.0
 40
2.0
 10
4.805515574578546
 20
-0.9771894120892739
 30
0.0
 10
4.806558958156377
 20
-0.8920145326862388
 30
0.0
 10
4.867596897459078
 20
-0.6976843413165044
 30
0.0
 10
4.99224645555647
 20
-0.6626005685121754
 30
0.0
 10
4.974074191576038
 20
-0.7382893522201609
 30
0.0
 10
4.913888348861873
 20
-0.9245941849037914
 30
0.0
 10
4.805515574578546
 20
-0.9771894120892739
 30
0.0
  0
SPLINE
  5
52
330
1F
100
AcDbEntity
  8
Layer 1
 62
     7
420
 16777215
370
     9
100
AcDbSpline
210
0.0
220
0.0
230
1.0
 70
    11
 71
     3
 72
   311
 73
   307
 74
     0
 42
0.0000000001
 43
0.0000000001
 12
1.0
 22
0.0
 32
0.0
 13
1.0
 23
0.0
 33
0.0
 40
0.0
 40
0.0
 40
0.0
 40
0.0
 40
1.0
 40
1.0
 40
1.0
 40
2.0
 40
2.0
 40
2.0
 40
3.0
 40
3.0
 40
3.0
 40
4.0
 40
4.0
 40
4.0
 40
5.0
 40
5.0
 40
5.0
 40
6.0
 40
6.0
 40
6.0
 40
7.0
 40
7.0
 40
7.0
 40
8.0
 40
8.0
 40
8.0
 40
9.0
 40
9.0
 40
9.0
 40
10.0
 40
10.0
 40
10.0
 40
11.0
 40
11.0
 40
11.0
 40
12.0
 40
12.0
 40
12.0
 40
13.0
 40
13.0
 40
13.0
 40
14.0
 40
14.0
 40
14.0
 40
15.0
 40
15.0
 40
15.0
 40
16.0
 40
16.0
 40
16.0
 40
17.0
 40
17.0
 40
17.0
 40
18.0
 40
18.0
 40
18.0
 40
19.0
 40
19.0
 40
19.0
 40
20.0
 40
20.0
 40
20.0
 40
21.0
 40
21.0
 40
21.0
 40
22.0
 40
22.0
 40
22.0
 40
23.0
 40
23.0
 40
23.0
 40
24.0
 40
24.0
 40
24.0
 40
25.0
 40
25.0
 40
25.0
 40
26.0
 40
26.0
 40
26.0
 40
27.0
 40
27.0
 40
27.0
 40
28.0
 40
28.0
 40
28.0
 40
29.0
 40
29.0
 40
29.0
 40
30.0
 40
30.0
 40
30.0
 40
31.0
 40
31.0
 40
31.0
 40
32.0
 40
32.0
 40
32.0
 40
33.0
 40
33.0
 40
33.0
 40
34.0
 40
34.0
 40
34.0
 40
35.0
 40
35.0
 40
35.0
 40
36.0
 40
36.0
 40
36.0
 40
37.0
 40
37.0
 40
37.0
 40
38.0
 40
38.0
 40
38.0
 40
39.0
 40
39.0
 40
39.0
 40
40.0
 40
40.0
 40
40.0
 40
41.0
 40
41.0
 40
41.0
 40
42.0
 40
42.0
 40
42.0
 40
43.0
 40
43.0
 40
43.0
 40
44.0
 40
44.0
 40
44.0
 40
45.0
 40
45.0
 40
45.0
 40
46.0
 40
46.0
 40
46.0
 40
47.0
 40
47.0
 40
47.0
 40
48.0
 40
48.0
 40
48.0
 40
49.0
 40
49.0
 40
49.0
 40
50.0
 40
50.0
 40
50.0
 40
51.0
 40
51.0
 40
51.0
 40
52.0
 40
52.0
 40
52.0
 40
53.0
 40
53.0
 40
53.0
 40
54.0
 40
54.0
 40
54.0
 40
55.0
 40
55.0
 40
55.0
 40
56.0
 40
56.0
 40
56.0
 40
57.0
 40
57.0
 40
57.0
 40
58.0
 40
58.0
 40
58.0
 40
59.0
 40
59.0
 40
59.0
 40
60.0
 40
60.0
 40
60.0
 40
61.0
 40
61.0
 40
61.0
 40
62.0
 40
62.0
 40
62.0
 40
63.0
 40
63.0
 40
63.0
 40
64.0
 40
64.0
 40
64.0
 40
65.0
 40
65.0
 40
65.0
 40
66.0
 40
66.0
 40
66.0
 40
67.0
 40
67.0
 40
67.0
 40
68.0
 40
68.0
 40
68.0
 40
69.0
 40
69.0
 40
69.0
 40
70.0
 40
70.0
 40
70.0
 40
71.0
 40
71.0
 40
71.0
 40
72.0
 40
72.0
 40
72.0
 40
73.0
 40
73.0
 40
73.0
 40
74.0
 40
74.0
 40
74.0
 40
75.0
 40
75.0
 40
75.0
 40
76.0
 40
76.0
 40
76.0
 40
77.0
 40
77.0
 40
77.0
 40
78.0
 40
78.0
 40
78.0
 40
79.0
 40
79.0
 40
79.0
 40
80.0
 40
80.0
 40
80.0
 40
81.0
 40
81.0
 40
81.0
 40
82.0
 40
82.0
 40
82.0
 40
83.0
 40
83.0
 40
83.0
 40
84.0
 40
84.0
 40
84.0
 40
85.0
 40
85.0
 40
85.0
 40
86.0
 40
86.0
 40
86.0
 40
87.0
 40
87.0
 40
87.0
 40
88.0
 40
88.0
 40
88.0
 40
89.0
 40
89.0
 40
89.0
 40
90.0
 40
90.0
 40
90.0
 40
91.0
 40
91.0
 40
91.0
 40
92.0
 40
92.0
 40
92.0
 40
93.0
 40
93.0
 40
93.0
 40
94.0
 40
94.0
 40
94.0
 40
95.0
 40
95.0
 40
95.0
 40
96.0
 40
96.0
 40
96.0
 40
97.0
 40
97.0
 40
97.0
 40
98.0
 40
98.0
 40
98.0
 40
99.0
 40
99.0
 40
99.0
 40
100.0
 40
100.0
 40
100.0
 40
101.0
 40
101.0
 40
101.0
 40
102.0
 40
102.0
 40
102.0
 40
102.0
 10
2.007062913287781
 20
-3.303986151002821
 30
0.0
 10
2.084664566888452
 20
-3.293221910424942
 30
0.0
 10
2.24107646006741
 20
-3.045122685344684
 30
0.0
 10
2.225069217010969
 20
-2.929689682184744
 30
0.0
 10
2.221034800510059
 20
-2.900596670089751
 30
0.0
 10
2.193958996665515
 20
-2.883589517771219
 30
0.0
 10
2.175291125485614
 20
-2.877277047125391
 30
0.0
 10
2.175291125485614
 20
-2.877277047125391
 30
0.0
 10
2.177795246072391
 20
-2.873972999128947
 30
0.0
 10
2.177795246072391
 20
-2.873972999128947
 30
0.0
 10
2.174708569654664
 20
-2.851661980289805
 30
0.0
 10
2.141407243795786
 20
-2.83255067108933
 30
0.0
 10
2.115218315992403
 20
-2.836167734159112
 30
0.0
 10
2.032593205207667
 20
-2.847637345509927
 30
0.0
 10
1.914621302008363
 20
-3.101469745978748
 30
0.0
 10
1.885084851892796
 20
-3.283894495982357
 30
0.0
 10
1.816082417946025
 20
-3.393155233164723
 30
0.0
 10
1.734916957312357
 20
-3.472771921300061
 30
0.0
 10
1.639087609978686
 20
-3.482561250347417
 30
0.0
 10
1.630357967377575
 20
-3.483778531188212
 30
0.0
 10
1.620384959346198
 20
-3.483169890767815
 30
0.0
 10
1.610281528367598
 20
-3.481604815401068
 30
0.0
 10
1.606812277971332
 20
-3.449468601204103
 30
0.0
 10
1.609733751989236
 20
-3.413471867769165
 30
0.0
 10
1.618602512400748
 20
-3.377631641870923
 30
0.0
 10
1.628784197147676
 20
-3.394012764042738
 30
0.0
 10
1.653921046510087
 20
-3.411298151982047
 30
0.0
 10
1.67817101983135
 20
-3.407941934806697
 30
0.0
 10
1.748008160640375
 20
-3.398255857259225
 30
0.0
 10
1.84603404777695
 20
-3.270963060764693
 30
0.0
 10
1.834200339031794
 20
-3.185596894372388
 30
0.0
 10
1.831513626318888
 20
-3.166207349551162
 30
0.0
 10
1.815506383262447
 20
-3.150626154788988
 30
0.0
 10
1.797673218944801
 20
-3.143200741660141
 30
0.0
 10
1.789595691079815
 20
-3.120594097473953
 30
0.0
 10
1.770440907563587
 20
-3.096561495731407
 30
0.0
 10
1.713211318319938
 20
-3.104491210922864
 30
0.0
 10
1.636533493928811
 20
-3.115128289127205
 30
0.0
 10
1.554347473733085
 20
-3.217207069348888
 30
0.0
 10
1.523283988277045
 20
-3.318310938040036
 30
0.0
 10
1.478635866009326
 20
-3.390308752341475
 30
0.0
 10
1.421874712517807
 20
-3.464963934192686
 30
0.0
 10
1.357043639166553
 20
-3.503881054787611
 30
0.0
 10
1.380241534046844
 20
-3.421575480223598
 30
0.0
 10
1.421655167223308
 20
-3.285326974686073
 30
0.0
 10
1.453252299905077
 20
-3.213716081794751
 30
0.0
 10
1.449217883404155
 20
-3.184623069699758
 30
0.0
 10
1.393440336306311
 20
-3.174554418173759
 30
0.0
 10
1.3707032691729
 20
-3.181666816229254
 30
0.0
 10
1.312265093951611
 20
-3.280718697217367
 30
0.0
 10
1.244506025435081
 20
-3.490821370338519
 30
0.0
 10
1.143993407438036
 20
-3.550242065095593
 30
0.0
 10
1.172842963364865
 20
-3.437487079785417
 30
0.0
 10
1.209300524546671
 20
-3.329601217838406
 30
0.0
 10
1.251679287532625
 20
-3.22881036422061
 30
0.0
 10
1.2482882909047
 20
-3.211490196828726
 30
0.0
 10
1.206257322444685
 20
-3.193596168469046
 30
0.0
 10
1.174381954142152
 20
-3.199004373347432
 30
0.0
 10
1.16916720996883
 20
-3.19972061269929
 30
0.0
 10
1.154978280168317
 20
-3.225061791345688
 30
0.0
 10
1.137472260076631
 20
-3.262043218032191
 30
0.0
 10
1.136826666487852
 20
-3.261171558001554
 30
0.0
 10
1.136123469430711
 20
-3.260369456876106
 30
0.0
 10
1.135246375110607
 20
-3.259798856481982
 30
0.0
 10
1.130829384631157
 20
-3.256460029032951
 30
0.0
 10
1.109083531896671
 20
-3.256512198211832
 30
0.0
 10
1.080686108853557
 20
-3.258477237283399
 30
0.0
 10
1.109266124022787
 20
-3.179371372358041
 30
0.0
 10
1.138785184412061
 20
-3.107064890414853
 30
0.0
 10
1.153209962375475
 20
-3.068477087761645
 30
0.0
 10
1.160087599125973
 20
-3.046757319616606
 30
0.0
 10
1.129829475369067
 20
-3.028219871383928
 30
0.0
 10
1.100353889295548
 20
-3.022429092527002
 30
0.0
 10
1.093484947408203
 20
-3.008534701215656
 30
0.0
 10
1.083146755124593
 20
-2.998118255163705
 30
0.0
 10
1.066948225078881
 20
-2.995422847587659
 30
0.0
 10
1.032351364610854
 20
-2.988345228984751
 30
0.0
 10
0.9899726016249006
 20
-2.989284274204793
 30
0.0
 10
0.9172226816611252
 20
-2.999370315457099
 30
0.0
 10
0.8434989370247068
 20
-3.009595474519768
 30
0.0
 10
0.7550373993515223
 20
-3.034706239292733
 30
0.0
 10
0.6953906381525787
 20
-3.089449097675899
 30
0.0
 10
0.6727318247875094
 20
-3.111377542536502
 30
0.0
 10
0.682530935555898
 20
-3.153512849354304
 30
0.0
 10
0.7000336950738983
 20
-3.172832835270343
 30
0.0
 10
0.7011901118726579
 20
-3.195422089730237
 30
0.0
 10
0.7106414281151071
 20
-3.220811090123953
 30
0.0
 10
0.7320916555025481
 20
-3.225732382666024
 30
0.0
 10
0.7729053431217683
 20
-3.234914158150875
 30
0.0
 10
0.8444205925184557
 20
-3.223019585363684
 30
0.0
 10
0.8682966867243193
 20
-3.209820783104204
 30
0.0
 10
0.8857820565160257
 20
-3.20046511035639
 30
0.0
 10
0.8896425757539721
 20
-3.171267759903609
 30
0.0
 10
0.8816433016573278
 20
-3.163477162522516
 30
0.0
 10
0.8468812387894912
 20
-3.16236422003951
 30
0.0
 10
0.8059023487704482
 20
-3.159147120674536
 30
0.0
 10
0.765358201908839
 20
-3.151912994534971
 30
0.0
 10
0.8568890262734435
 20
-3.120437589937283
 30
0.0
 10
0.9614099761819767
 20
-3.097048408067722
 30
0.0
 10
1.043002571967817
 20
-3.093640021713504
 30
0.0
 10
1.016578882859423
 20
-3.152678142492037
 30
0.0
 10
0.9904334293717814
 20
-3.213646522889576
 30
0.0
 10
0.9659573896086613
 20
-3.272406408047358
 30
0.0
 10
0.9080235164499805
 20
-3.282422890394463
 30
0.0
 10
0.8553413406330163
 20
-3.294665257707594
 30
0.0
 10
0.8478202840095339
 20
-3.304594791423217
 30
0.0
 10
0.8302740501757928
 20
-3.327792686303509
 30
0.0
 10
0.8526546279201107
 20
-3.375110131557828
 30
0.0
 10
0.88215629858309
 20
-3.373997189074821
 30
0.0
 10
0.88215629858309
 20
-3.373997189074821
 30
0.0
 10
0.9271869948293493
 20
-3.370710530804672
 30
0.0
 10
0.9271869948293493
 20
-3.370710530804672
 30
0.0
 10
0.8756612358111321
 20
-3.505393960975463
 30
0.0
 10
0.8413947801427639
 20
-3.621870347713222
 30
0.0
 10
0.8472551179048776
 20
-3.678404347904991
 30
0.0
 10
0.8527850508673458
 20
-3.74683292088394
 30
0.0
 10
0.9164575337040585
 20
-3.756797234052164
 30
0.0
 10
0.9387598576800479
 20
-3.753701862771272
 30
0.0
 10
0.9509848352668844
 20
-3.67786526638977
 30
0.0
 10
0.9910594595184723
 20
-3.531913293578491
 30
0.0
 10
1.038620360940955
 20
-3.382952898117815
 30
0.0
 10
1.038620360940955
 20
-3.382952898117815
 30
0.0
 10
1.046767447711128
 20
-3.356120550441435
 30
0.0
 10
1.046767447711128
 20
-3.356120550441435
 30
0.0
 10
1.066165687395508
 20
-3.353425142865389
 30
0.0
 10
1.082390302030666
 20
-3.349199439375196
 30
0.0
 10
1.095702137511075
 20
-3.34537369958985
 30
0.0
 10
1.097756298929918
 20
-3.344765059169453
 30
0.0
 10
1.099776767754052
 20
-3.343887964849336
 30
0.0
 10
1.101763543983503
 20
-3.34282610468732
 30
0.0
 10
1.100928837121235
 20
-3.344827010069379
 30
0.0
 10
1.100091956543186
 20
-3.346804004577797
 30
0.0
 10
1.099258336538823
 20
-3.348816865396669
 30
0.0
 10
1.069869699096785
 20
-3.422097172012514
 30
0.0
 10
1.049045501856047
 20
-3.500124873907453
 30
0.0
 10
1.053618999872179
 20
-3.533095794966685
 30
0.0
 10
1.056714371153046
 20
-3.555406813805828
 30
0.0
 10
1.071478248779259
 20
-3.569179477033104
 30
0.0
 10
1.089311413096905
 20
-3.576604890161964
 30
0.0
 10
1.097901937887653
 20
-3.610010554378631
 30
0.0
 10
1.128177451370852
 20
-3.657223661275161
 30
0.0
 10
1.181529131650248
 20
-3.649833027598902
 30
0.0
 10
1.217421526727397
 20
-3.644859565877924
 30
0.0
 10
1.246418895327755
 20
-3.597333443908054
 30
0.0
 10
1.271868759763518
 20
-3.538434440939884
 30
0.0
 10
1.277529115673208
 20
-3.543581799923825
 30
0.0
 10
1.284989308254656
 20
-3.547494488340665
 30
0.0
 10
1.293284207698358
 20
-3.550294234274487
 30
0.0
 10
1.300966119290087
 20
-3.573101947170989
 30
0.0
 10
1.316440801978691
 20
-3.600215791041794
 30
0.0
 10
1.336217268210034
 20
-3.614981842383789
 30
0.0
 10
1.327390895256372
 20
-3.647395205343628
 30
0.0
 10
1.317052702972761
 20
-3.684033184935767
 30
0.0
 10
1.306405843047388
 20
-3.722430787457584
 30
0.0
 10
1.270997099732881
 20
-3.847992219327668
 30
0.0
 10
1.183176808216899
 20
-4.130313338902662
 30
0.0
 10
1.196425605939478
 20
-4.225910098647116
 30
0.0
 10
1.200116575346025
 20
-4.252501163871115
 30
0.0
 10
1.210235222335137
 20
-4.269694168889449
 30
0.0
 10
1.223032974031879
 20
-4.280061706336179
 30
0.0
 10
1.226212033370568
 20
-4.282637559543951
 30
0.0
 10
1.228585731010121
 20
-4.285929652103542
 30
0.0
 10
1.229440001314464
 20
-4.289931462867672
 30
0.0
 10
1.236995837390534
 20
-4.325330424461122
 30
0.0
 10
1.255828910970258
 20
-4.387717154409756
 30
0.0
 10
1.30977184194377
 20
-4.380243919533592
 30
0.0
 10
1.367001431187418
 20
-4.372296814615829
 30
0.0
 10
1.415657885366613
 20
-4.295364665477601
 30
0.0
 10
1.454636956861489
 20
-4.212833024471719
 30
0.0
 10
1.454071790756833
 20
-4.215876226573704
 30
0.0
 10
1.454610872272042
 20
-4.219771525264251
 30
0.0
 10
1.455010835976875
 20
-4.222675609555861
 30
0.0
 10
1.458449654352105
 20
-4.241223926367462
 30
0.0
 10
1.467646645847481
 20
-4.252169672213578
 30
0.0
 10
1.478407625851686
 20
-4.258739728180191
 30
0.0
 10
1.481734497863891
 20
-4.260771065583261
 30
0.0
 10
1.483875607914216
 20
-4.264131630190175
 30
0.0
 10
1.485080933318184
 20
-4.267838902465124
 30
0.0
 10
1.496352736532357
 20
-4.302520537848838
 30
0.0
 10
1.523407890076921
 20
-4.347645790731841
 30
0.0
 10
1.563514033207437
 20
-4.342090860037817
 30
0.0
 10
1.609733751989236
 20
-4.335679485323668
 30
0.0
 10
1.672229167727222
 20
-4.241784745040554
 30
0.0
 10
1.724976555017798
 20
-4.142354637505491
 30
0.0
 10
1.72303216624621
 20
-4.148347571930622
 30
0.0
 10
1.721196463263974
 20
-4.154386154387276
 30
0.0
 10
1.719160778429328
 20
-4.160333440780871
 30
0.0
 10
1.686676769706398
 20
-4.24688210856137
 30
0.0
 10
1.624891072172937
 20
-4.385965139485316
 30
0.0
 10
1.633629409637201
 20
-4.449020287038492
 30
0.0
 10
1.636515017344613
 20
-4.469818399689782
 30
0.0
 10
1.645339216582506
 20
-4.508690959111087
 30
0.0
 10
1.706330420995767
 20
-4.511977617381237
 30
0.0
 10
1.714356866539763
 20
-4.512410186822876
 30
0.0
 10
1.72162577213194
 20
-4.507220440381085
 30
0.0
 10
1.723482125414143
 20
-4.499399410978981
 30
0.0
 10
1.739039409302664
 20
-4.433851011417977
 30
0.0
 10
1.759756007611941
 20
-4.352209507026929
 30
0.0
 10
1.782106153335247
 20
-4.268699693916838
 30
0.0
 10
1.784250523959246
 20
-4.260689551241247
 30
0.0
 10
1.792101985382374
 20
-4.255316125815448
 30
0.0
 10
1.80028711217882
 20
-4.256638831871921
 30
0.0
 10
1.800894665741339
 20
-4.256736649082338
 30
0.0
 10
1.801490263867006
 20
-4.256824684571724
 30
0.0
 10
1.802074993413738
 20
-4.256902938340065
 30
0.0
 10
1.807118014039891
 20
-4.257580050807746
 30
0.0
 10
1.811317632940636
 20
-4.260573257446645
 30
0.0
 10
1.814049993685065
 20
-4.26486525926834
 30
0.0
 10
1.827869391801768
 20
-4.286575245692322
 30
0.0
 10
1.850348873614406
 20
-4.304271465915374
 30
0.0
 10
1.88963226531948
 20
-4.298825221010702
 30
0.0
 10
1.977902516003395
 20
-4.286582853697584
 30
0.0
 10
2.100856575786805
 20
-4.025336995536741
 30
0.0
 10
2.08619703651838
 20
-3.919607459650567
 30
0.0
 10
2.079270491162687
 20
-3.869675034304325
 30
0.0
 10
2.040685949083164
 20
-3.853152620606339
 30
0.0
 10
2.019206376532591
 20
-3.848731282695288
 30
0.0
 10
2.01544802193665
 20
-3.847957439875068
 30
0.0
 10
2.01205376473504
 20
-3.845976097935098
 30
0.0
 10
2.009813750616407
 20
-3.842860076354251
 30
0.0
 10
2.000205926837276
 20
-3.829498245410731
 30
0.0
 10
1.984096519138827
 20
-3.819086146790369
 30
0.0
 10
1.958069533161582
 20
-3.822694514997011
 30
0.0
 10
1.935845462953933
 20
-3.825774670267378
 30
0.0
 10
1.912480191958037
 20
-3.842837252338477
 30
0.0
 10
1.88990832722445
 20
-3.868201255000649
 30
0.0
 10
1.884706625345833
 20
-3.874045289894361
 30
0.0
 10
1.876128055991911
 20
-3.874973466535455
 30
0.0
 10
1.869329759867658
 20
-3.871099905002792
 30
0.0
 10
1.853105145232487
 20
-3.861854004902221
 30
0.0
 10
1.831495149734703
 20
-3.855783903566652
 30
0.0
 10
1.808526581869955
 20
-3.857975009080089
 30
0.0
 10
1.801340277477695
 20
-3.858660816410924
 30
0.0
 10
1.795271263000018
 20
-3.86355819807933
 30
0.0
 10
1.79361163099654
 20
-3.870582560645453
 30
0.0
 10
1.789201161664449
 20
-3.889264560977974
 30
0.0
 10
1.784603752774653
 20
-3.909925729534671
 30
0.0
 10
1.779699849958888
 20
-3.931844392674242
 30
0.0
 10
1.77842279193395
 20
-3.933089931820266
 30
0.0
 10
1.777118562461661
 20
-3.934327862961027
 30
0.0
 10
1.776266465873113
 20
-3.936010318980278
 30
0.0
 10
1.739238304297184
 20
-4.009088470027917
 30
0.0
 10
1.68265213492652
 20
-4.126323483575384
 30
0.0
 10
1.595752412046409
 20
-4.193873875376337
 30
0.0
 10
1.58341331438074
 20
-4.203465396287066
 30
0.0
 10
1.565729049594514
 20
-4.191744720762838
 30
0.0
 10
1.569685212327095
 20
-4.176625440605436
 30
0.0
 10
1.627328894428198
 20
-3.956326953584721
 30
0.0
 10
1.71468944505519
 20
-3.728196568582954
 30
0.0
 10
1.708866060461459
 20
-3.686219943017628
 30
0.0
 10
1.704567537492405
 20
-3.655212974172059
 30
0.0
 10
1.672323724363966
 20
-3.636835294049736
 30
0.0
 10
1.620134982030676
 20
-3.641439224086891
 30
0.0
 10
1.613873593705837
 20
-3.641991347896818
 30
0.0
 10
1.608514297432672
 20
-3.646334432039516
 30
0.0
 10
1.606356884513932
 20
-3.65223824411737
 30
0.0
 10
1.517057379404807
 20
-3.896636718070037
 30
0.0
 10
1.436782055385972
 20
-4.150927772569945
 30
0.0
 10
1.316727732462596
 20
-4.238652420591292
 30
0.0
 10
1.304048448276237
 20
-4.247917884133939
 30
0.0
 10
1.286884788421035
 20
-4.235007099216268
 30
0.0
 10
1.291621315121195
 20
-4.22003454487449
 30
0.0
 10
1.342110211708953
 20
-4.060417507767385
 30
0.0
 10
1.407835769106605
 20
-3.884133504862436
 30
0.0
 10
1.426338437886683
 20
-3.791372357362307
 30
0.0
 10
1.458795275162275
 20
-3.691861822343134
 30
0.0
 10
1.48220945476338
 20
-3.610364870051916
 30
0.0
 10
1.477627261884095
 20
-3.577312434650669
 30
0.0
 10
1.475622009070472
 20
-3.562869180103057
 30
0.0
 10
1.470400743749779
 20
-3.551466953941649
 30
0.0
 10
1.462864471115785
 20
-3.542547111209147
 30
0.0
 10
1.48201055976886
 20
-3.51531045239637
 30
0.0
 10
1.501297939948093
 20
-3.483416607509652
 30
0.0
 10
1.519801695586062
 20
-3.449793571714268
 30
0.0
 10
1.528680237718605
 20
-3.470705804444391
 30
0.0
 10
1.543234351771364
 20
-3.485320782539171
 30
0.0
 10
1.560512131705397
 20
-3.493447219009378
 30
0.0
 10
1.581162431683159
 20
-3.556832771362186
 30
0.0
 10
1.635748782529655
 20
-3.586830049224634
 30
0.0
 10
1.697830105410175
 20
-3.57822213470758
 30
0.0
 10
1.753634823955369
 20
-3.570490227652751
 30
0.0
 10
1.822534006402242
 20
-3.490322502565378
 30
0.0
 10
1.880846106107886
 20
-3.398364543048577
 30
0.0
 10
1.884667498461668
 20
-3.422396057933244
 30
0.0
 10
1.894590511029934
 20
-3.442633351911455
 30
0.0
 10
1.916845013258605
 20
-3.451937942338279
 30
0.0
 10
1.921288088327502
 20
-3.483952428451175
 30
0.0
 10
1.961093171821492
 20
-3.53577381281645
 30
0.0
 10
2.016383806583008
 20
-3.528104943519426
 30
0.0
 10
2.063918623416043
 20
-3.521514237252846
 30
0.0
 10
2.180621076595672
 20
-3.364937141674052
 30
0.0
 10
2.176647524136772
 20
-3.321984517720289
 30
0.0
 10
2.173821693613516
 20
-3.30162114822642
 30
0.0
 10
2.158788275229704
 20
-3.285918225380176
 30
0.0
 10
2.139311781776983
 20
-3.273780196424822
 30
0.0
 10
2.139311781776983
 20
-3.273780196424822
 30
0.0
 10
2.1344600481401
 20
-3.274458395750407
 30
0.0
 10
2.1344600481401
 20
-3.274458395750407
 30
0.0
 10
2.11292287212119
 20
-3.325879816410836
 30
0.0
 10
2.03366049965915
 20
-3.403107590896108
 30
0.0
 10
1.963032126303612
 20
-3.43564376879792
 30
0.0
 10
1.964736319480721
 20
-3.390917392761871
 30
0.0
 10
1.972135648020122
 20
-3.344417264643514
 30
0.0
 10
1.983404190660622
 20
-3.297378055009947
 30
0.0
 10
1.990038371242955
 20
-3.302386296183499
 30
0.0
 10
1.998333270686658
 20
-3.305186042117321
 30
0.0
 10
2.007062913287781
 20
-3.303986151002821
 30
0.0
  0
SPLINE
  5
53
330
1F
100
AcDbEntity
  8
Layer 1
 62
     7
420
 16777215
370
     9
100
AcDbSpline
210
0.0
220
0.0
230
1.0
 70
    11
 71
     3
 72
    17
 73
    13
 74
     0
 42
0.0000000001
 43
0.0000000001
 12
1.0
 22
0.0
 32
0.0
 13
1.0
 23
0.0
 33
0.0
 40
0.0
 40
0.0
 40
0.0
 40
0.0
 40
1.0
 40
1.0
 40
1.0
 40
2.0
 40
2.0
 40
2.0
 40
3.0
 40
3.0
 40
3.0
 40
4.0
 40
4.0
 40
4.0
 40
4.0
 10
1.815182499610147
 20
-4.18812439711937
 30
0.0
 10
1.835944745950959
 20
-4.093984026952297
 30
0.0
 10
1.907436084474006
 20
-3.955510723306651
 30
0.0
 10
1.973574647871209
 20
-3.898360474689234
 30
0.0
 10
1.985219243342878
 20
-3.888298344310594
 30
0.0
 10
2.003236086644544
 20
-3.898440902173358
 30
0.0
 10
2.000629801415761
 20
-3.913608004078077
 30
0.0
 10
1.984382362764841
 20
-4.008143990518407
 30
0.0
 10
1.929882960549839
 20
-4.158760757408875
 30
0.0
 10
1.838870567400439
 20
-4.206683582509918
 30
0.0
 10
1.826391265066516
 20
-4.21325472533441
 30
0.0
 10
1.812144731797641
 20
-4.201897060346659
 30
0.0
 10
1.815182499610147
 20
-4.18812439711937
 30
0.0
  0
SPLINE
  5
54
330
1F
100
AcDbEntity
  8
Layer 1
 62
     7
420
 16777215
370
     9
100
AcDbSpline
210
0.0
220
0.0
230
1.0
 70
    11
 71
     3
 72
    11
 73
     7
 74
     0
 42
0.0000000001
 43
0.0000000001
 12
1.0
 22
0.0
 32
0.0
 13
1.0
 23
0.0
 33
0.0
 40
0.0
 40
0.0
 40
0.0
 40
0.0
 40
1.0
 40
1.0
 40
1.0
 40
2.0
 40
2.0
 40
2.0
 40
2.0
 10
1.769484472617251
 20
-3.160955652209446
 30
0.0
 10
1.751738256931099
 20
-3.232618714279662
 30
0.0
 10
1.680257786986999
 20
-3.337443984398381
 30
0.0
 10
1.623106451511692
 20
-3.360207136121251
 30
0.0
 10
1.647565101548505
 20
-3.272771592299591
 30
0.0
 10
1.703168751383386
 20
-3.188935721821432
 30
0.0
 10
1.769484472617251
 20
-3.160955652209446
 30
0.0
  0
SPLINE
  5
55
330
1F
100
AcDbEntity
  8
Layer 1
 62
     7
420
 16777215
370
     9
100
AcDbSpline
210
0.0
220
0.0
230
1.0
 70
    11
 71
     3
 72
    11
 73
     7
 74
     0
 42
0.0000000001
 43
0.0000000001
 12
1.0
 22
0.0
 32
0.0
 13
1.0
 23
0.0
 33
0.0
 40
0.0
 40
0.0
 40
0.0
 40
0.0
 40
1.0
 40
1.0
 40
1.0
 40
2.0
 40
2.0
 40
2.0
 40
2.0
 10
2.158849139271739
 20
-2.901309648867937
 30
0.0
 10
2.151928028205513
 20
-3.001144067539397
 30
0.0
 10
2.057719185991143
 20
-3.177336774381287
 30
0.0
 10
1.997481174098096
 20
-3.24202655620637
 30
0.0
 10
2.03175632462963
 20
-3.125567559194918
 30
0.0
 10
2.088342494000282
 20
-3.00599580117628
 30
0.0
 10
2.158849139271739
 20
-2.901309648867937
 30
0.0
  0
SPLINE
  5
56
330
1F
100
AcDbEntity
  8
Layer 1
 62
     7
420
 16777215
370
     9
100
AcDbSpline
210
0.0
220
0.0
230
1.0
 70
    11
 71
     3
 72
   263
 73
   259
 74
     0
 42
0.0000000001
 43
0.0000000001
 12
1.0
 22
0.0
 32
0.0
 13
1.0
 23
0.0
 33
0.0
 40
0.0
 40
0.0
 40
0.0
 40
0.0
 40
1.0
 40
1.0
 40
1.0
 40
2.0
 40
2.0
 40
2.0
 40
3.0
 40
3.0
 40
3.0
 40
4.0
 40
4.0
 40
4.0
 40
5.0
 40
5.0
 40
5.0
 40
6.0
 40
6.0
 40
6.0
 40
7.0
 40
7.0
 40
7.0
 40
8.0
 40
8.0
 40
8.0
 40
9.0
 40
9.0
 40
9.0
 40
10.0
 40
10.0
 40
10.0
 40
11.0
 40
11.0
 40
11.0
 40
12.0
 40
12.0
 40
12.0
 40
13.0
 40
13.0
 40
13.0
 40
14.0
 40
14.0
 40
14.0
 40
15.0
 40
15.0
 40
15.0
 40
16.0
 40
16.0
 40
16.0
 40
17.0
 40
17.0
 40
17.0
 40
18.0
 40
18.0
 40
18.0
 40
19.0
 40
19.0
 40
19.0
 40
20.0
 40
20.0
 40
20.0
 40
21.0
 40
21.0
 40
21.0
 40
22.0
 40
22.0
 40
22.0
 40
23.0
 40
23.0
 40
23.0
 40
24.0
 40
24.0
 40
24.0
 40
25.0
 40
25.0
 40
25.0
 40
26.0
 40
26.0
 40
26.0
 40
27.0
 40
27.0
 40
27.0
 40
28.0
 40
28.0
 40
28.0
 40
29.0
 40
29.0
 40
29.0
 40
30.0
 40
30.0
 40
30.0
 40
31.0
 40
31.0
 40
31.0
 40
32.0
 40
32.0
 40
32.0
 40
33.0
 40
33.0
 40
33.0
 40
34.0
 40
34.0
 40
34.0
 40
35.0
 40
35.0
 40
35.0
 40
36.0
 40
36.0
 40
36.0
 40
37.0
 40
37.0
 40
37.0
 40
38.0
 40
38.0
 40
38.0
 40
39.0
 40
39.0
 40
39.0
 40
40.0
 40
40.0
 40
40.0
 40
41.0
 40
41.0
 40
41.0
 40
42.0
 40
42.0
 40
42.0
 40
43.0
 40
43.0
 40
43.0
 40
44.0
 40
44.0
 40
44.0
 40
45.0
 40
45.0
 40
45.0
 40
46.0
 40
46.0
 40
46.0
 40
47.0
 40
47.0
 40
47.0
 40
48.0
 40
48.0
 40
48.0
 40
49.0
 40
49.0
 40
49.0
 40
50.0
 40
50.0
 40
50.0
 40
51.0
 40
51.0
 40
51.0
 40
52.0
 40
52.0
 40
52.0
 40
53.0
 40
53.0
 40
53.0
 40
54.0
 40
54.0
 40
54.0
 40
55.0
 40
55.0
 40
55.0
 40
56.0
 40
56.0
 40
56.0
 40
57.0
 40
57.0
 40
57.0
 40
58.0
 40
58.0
 40
58.0
 40
59.0
 40
59.0
 40
59.0
 40
60.0
 40
60.0
 40
60.0
 40
61.0
 40
61.0
 40
61.0
 40
62.0
 40
62.0
 40
62.0
 40
63.0
 40
63.0
 40
63.0
 40
64.0
 40
64.0
 40
64.0
 40
65.0
 40
65.0
 40
65.0
 40
66.0
 40
66.0
 40
66.0
 40
67.0
 40
67.0
 40
67.0
 40
68.0
 40
68.0
 40
68.0
 40
69.0
 40
69.0
 40
69.0
 40
70.0
 40
70.0
 40
70.0
 40
71.0
 40
71.0
 40
71.0
 40
72.0
 40
72.0
 40
72.0
 40
73.0
 40
73.0
 40
73.0
 40
74.0
 40
74.0
 40
74.0
 40
75.0
 40
75.0
 40
75.0
 40
76.0
 40
76.0
 40
76.0
 40
77.0
 40
77.0
 40
77.0
 40
78.0
 40
78.0
 40
78.0
 40
79.0
 40
79.0
 40
79.0
 40
80.0
 40
80.0
 40
80.0
 40
81.0
 40
81.0
 40
81.0
 40
82.0
 40
82.0
 40
82.0
 40
83.0
 40
83.0
 40
83.0
 40
84.0
 40
84.0
 40
84.0
 40
85.0
 40
85.0
 40
85.0
 40
86.0
 40
86.0
 40
86.0
 40
86.0
 10
5.434967166516167
 20
-3.30027485228431
 30
0.0
 10
5.367564587388718
 20
-3.420350912365557
 30
0.0
 10
5.29998811099833
 20
-3.489040331238976
 30
0.0
 10
5.228203320844032
 20
-3.563242293348569
 30
0.0
 10
5.265660791287902
 20
-3.44831359225125
 30
0.0
 10
5.310039372798024
 20
-3.333402280880225
 30
0.0
 10
5.359530533839486
 20
-3.219777809255182
 30
0.0
 10
5.360434799606915
 20
-3.169225874909607
 30
0.0
 10
5.28590243269769
 20
-3.173625475662763
 30
0.0
 10
5.277172790096579
 20
-3.174842756503558
 30
0.0
 10
5.23218556816606
 20
-3.271042722378941
 30
0.0
 10
5.150471244296138
 20
-3.47318090085605
 30
0.0
 10
5.048289212574572
 20
-3.534810090852867
 30
0.0
 10
5.084390284367272
 20
-3.410177922481769
 30
0.0
 10
5.15074947991689
 20
-3.239828163675699
 30
0.0
 10
5.148175800424926
 20
-3.221395053800809
 30
0.0
 10
5.144802193523295
 20
-3.204057496682645
 30
0.0
 10
5.098058609236785
 20
-3.187815492321179
 30
0.0
 10
5.063261766916336
 20
-3.193623660904399
 30
0.0
 10
5.050735729692986
 20
-3.222378660194484
 30
0.0
 10
5.038724863111181
 20
-3.251362986500125
 30
0.0
 10
5.027596525138961
 20
-3.279859313611546
 30
0.0
 10
4.973309060213195
 20
-3.378642740699938
 30
0.0
 10
4.925242769870187
 20
-3.451157899358703
 30
0.0
 10
4.865453630287194
 20
-3.50582141711565
 30
0.0
 10
4.893416310172875
 20
-3.436679865358504
 30
0.0
 10
4.909797432344728
 20
-3.362251836807054
 30
0.0
 10
4.902667644562926
 20
-3.310830416146624
 30
0.0
 10
4.896355173917097
 20
-3.265234553795722
 30
0.0
 10
4.860375830208467
 20
-3.255391968711579
 30
0.0
 10
4.831995796891634
 20
-3.257357007783146
 30
0.0
 10
4.82709189407587
 20
-3.236280659511117
 30
0.0
 10
4.817771000780643
 20
-3.211882873516313
 30
0.0
 10
4.776053047393967
 20
-3.217656262646945
 30
0.0
 10
4.759567586864351
 20
-3.219951706518158
 30
0.0
 10
4.742212640019893
 20
-3.230263814212321
 30
0.0
 10
4.725666315448229
 20
-3.246401480215998
 30
0.0
 10
4.756202674825873
 20
-3.195693038333742
 30
0.0
 10
4.79151251407206
 20
-3.129507740047099
 30
0.0
 10
4.784660961911034
 20
-3.080033968731944
 30
0.0
 10
4.78034830978936
 20
-3.048993307291678
 30
0.0
 10
4.755541865226582
 20
-3.019795956838923
 30
0.0
 10
4.696373321500813
 20
-3.02800390765113
 30
0.0
 10
4.685666684391284
 20
-3.059059785101908
 30
0.0
 10
4.646056148460249
 20
-3.179136932041047
 30
0.0
 10
4.605985871640238
 20
-3.304972252100305
 30
0.0
 10
4.605555475914368
 20
-3.304817918279418
 30
0.0
 10
4.605228331688421
 20
-3.304704885058489
 30
0.0
 10
4.605085953304347
 20
-3.304657063311172
 30
0.0
 10
4.560550864257569
 20
-3.389918891345688
 30
0.0
 10
4.472158885489585
 20
-3.565311670777911
 30
0.0
 10
4.357099761445018
 20
-3.626732184059152
 30
0.0
 10
4.386166688950576
 20
-3.529767070226714
 30
0.0
 10
4.440457414450015
 20
-3.393709851678447
 30
0.0
 10
4.459333962345479
 20
-3.351557155134363
 30
0.0
 10
4.458012343146897
 20
-3.334932576794358
 30
0.0
 10
4.431806025617233
 20
-3.309891370926582
 30
0.0
 10
4.420702685376556
 20
-3.315386524436462
 30
0.0
 10
4.381062804282388
 20
-3.321872892345267
 30
0.0
 10
4.354334794963784
 20
-3.321629436177103
 30
0.0
 10
4.316694732393797
 20
-3.313995346332692
 30
0.0
 10
4.324815734574511
 20
-3.29408410972255
 30
0.0
 10
4.337136355655982
 20
-3.261721829083702
 30
0.0
 10
4.338831853969952
 20
-3.252592222777745
 30
0.0
 10
4.336684222772267
 20
-3.237063197194478
 30
0.0
 10
4.307130382930406
 20
-3.216438981806151
 30
0.0
 10
4.27705485129963
 20
-3.220612516117436
 30
0.0
 10
4.244075235377232
 20
-3.225186014133568
 30
0.0
 10
4.210913027328742
 20
-3.30690033800349
 30
0.0
 10
4.215086561640027
 20
-3.336967174771126
 30
0.0
 10
4.216834229132878
 20
-3.349592116062796
 30
0.0
 10
4.226476832364609
 20
-3.362095329270384
 30
0.0
 10
4.241805876095466
 20
-3.372807400669381
 30
0.0
 10
4.226599647306582
 20
-3.405231632208155
 30
0.0
 10
4.207507901548183
 20
-3.447447366510068
 30
0.0
 10
4.185558806387601
 20
-3.487361135793422
 30
0.0
 10
4.114752188337522
 20
-3.603626672099823
 30
0.0
 10
4.030847845812066
 20
-3.689488445691596
 30
0.0
 10
3.931060162030008
 20
-3.699682085875351
 30
0.0
 10
3.922330519428897
 20
-3.700899366716132
 30
0.0
 10
3.912357511397532
 20
-3.700290726295748
 30
0.0
 10
3.902254080418932
 20
-3.698725650929014
 30
0.0
 10
3.898784830022666
 20
-3.666589436732036
 30
0.0
 10
3.90170630404057
 20
-3.630592703297098
 30
0.0
 10
3.910575064452082
 20
-3.594752477398843
 30
0.0
 10
3.92075674919901
 20
-3.611133599570684
 30
0.0
 10
3.945893598561421
 20
-3.628418987509967
 30
0.0
 10
3.970143571882684
 20
-3.62506277033463
 30
0.0
 10
4.039980712691709
 20
-3.61537669278717
 30
0.0
 10
4.138006599828284
 20
-3.488083896292639
 30
0.0
 10
4.126172891083115
 20
-3.402717729900334
 30
0.0
 10
4.123486178370222
 20
-3.383328185079108
 30
0.0
 10
4.107478935313767
 20
-3.367746990316934
 30
0.0
 10
4.089645770996134
 20
-3.360321577188087
 30
0.0
 10
4.081568243131136
 20
-3.337714933001898
 30
0.0
 10
4.062413459614921
 20
-3.313682331259353
 30
0.0
 10
4.005183870371272
 20
-3.321612046450809
 30
0.0
 10
3.937210690849712
 20
-3.331041625535401
 30
0.0
 10
3.865025936990592
 20
-3.41237772285836
 30
0.0
 10
3.827817357004328
 20
-3.501144667599621
 30
0.0
 10
3.787334074184754
 20
-3.577184506407232
 30
0.0
 10
3.725185366114829
 20
-3.684553023996904
 30
0.0
 10
3.649667219096134
 20
-3.750636157641553
 30
0.0
 10
3.749913556909253
 20
-3.615102804597996
 30
0.0
 10
3.81264373395225
 20
-3.410060541829264
 30
0.0
 10
3.795637668491609
 20
-3.287406454824476
 30
0.0
 10
3.791298931780489
 20
-3.263304294176742
 30
0.0
 10
3.77101381605496
 20
-3.245340706911874
 30
0.0
 10
3.748902779068241
 20
-3.235567680732919
 30
0.0
 10
3.734712762409837
 20
-3.183155045673554
 30
0.0
 10
3.693203485738738
 20
-3.140463267614261
 30
0.0
 10
3.552546684584904
 20
-3.159957150793275
 30
0.0
 10
3.42741021415121
 20
-3.177312097637746
 30
0.0
 10
3.364111610429884
 20
-3.212787139283768
 30
0.0
 10
3.322689282390267
 20
-3.249183836423526
 30
0.0
 10
3.29996960498315
 20
-3.284954503416593
 30
0.0
 10
3.326662834849142
 20
-3.327715840381087
 30
0.0
 10
3.348486941351969
 20
-3.342497107733594
 30
0.0
 10
3.375832285954099
 20
-3.325837749941002
 30
0.0
 10
3.406499068278966
 20
-3.311699902461492
 30
0.0
 10
3.438539638981335
 20
-3.300344411189498
 30
0.0
 10
3.368954649203614
 20
-3.483006096213899
 30
0.0
 10
3.303247568390159
 20
-3.665128699723077
 30
0.0
 10
3.313872691157649
 20
-3.741765223514259
 30
0.0
 10
3.318072310058394
 20
-3.764910949215656
 30
0.0
 10
3.341704948096107
 20
-3.778440156274769
 30
0.0
 10
3.365354975860125
 20
-3.785048252267655
 30
0.0
 10
3.385440109733231
 20
-3.851477006722462
 30
0.0
 10
3.419628311633257
 20
-3.891229921037557
 30
0.0
 10
3.463276524638912
 20
-3.885178296286186
 30
0.0
 10
3.493961783547977
 20
-3.880923247632861
 30
0.0
 10
3.523786251005327
 20
-3.868038547304625
 30
0.0
 10
3.552177152901095
 20
-3.84862183103606
 30
0.0
 10
3.555944202360201
 20
-3.855516857512839
 30
0.0
 10
3.560341629397549
 20
-3.862223857574046
 30
0.0
 10
3.565269443086991
 20
-3.86838525497266
 30
0.0
 10
3.559213470904044
 20
-3.899132464781676
 30
0.0
 10
3.58052892791266
 20
-3.930542657905751
 30
0.0
 10
3.598595766677438
 20
-3.942779590929427
 30
0.0
 10
3.625941111279568
 20
-3.926120233136834
 30
0.0
 10
3.656607893604448
 20
-3.911982385657325
 30
0.0
 10
3.688648464306791
 20
-3.90062689438533
 30
0.0
 10
3.619063474529083
 20
-4.083288579409731
 30
0.0
 10
3.553356393715616
 20
-4.265411182918923
 30
0.0
 10
3.563981516483131
 20
-4.342047706710092
 30
0.0
 10
3.568181135383863
 20
-4.365193432411489
 30
0.0
 10
3.591813773421563
 20
-4.378722639470602
 30
0.0
 10
3.615463801185594
 20
-4.385330735463488
 30
0.0
 10
3.6355489350587
 20
-4.451759489918282
 30
0.0
 10
3.669737136958739
 20
-4.49151240423339
 30
0.0
 10
3.713385349964369
 20
-4.485460779482006
 30
0.0
 10
3.75623689613403
 20
-4.479518927377878
 30
0.0
 10
3.797405986284439
 20
-4.456742733360291
 30
0.0
 10
3.835338413627811
 20
-4.42283820137047
 30
0.0
 10
3.850542468700926
 20
-4.446482794845021
 30
0.0
 10
3.873067598545087
 20
-4.46590059797149
 30
0.0
 10
3.898321828560003
 20
-4.462399828696308
 30
0.0
 10
3.942735189522712
 20
-4.456240605013464
 30
0.0
 10
4.006763074890626
 20
-4.368490959260574
 30
0.0
 10
4.060007156238561
 20
-4.274863586019263
 30
0.0
 10
4.066222896531877
 20
-4.292392430126711
 30
0.0
 10
4.076057873610769
 20
-4.305931418906868
 30
0.0
 10
4.089464265727909
 20
-4.313667673393272
 30
0.0
 10
4.096915763446203
 20
-4.353159741813922
 30
0.0
 10
4.126730449182522
 20
-4.411310986551308
 30
0.0
 10
4.176204220497677
 20
-4.40445943439027
 30
0.0
 10
4.20529723259267
 20
-4.400425017889347
 30
0.0
 10
4.239554993397897
 20
-4.355142170611783
 30
0.0
 10
4.271795545952651
 20
-4.29530412242357
 30
0.0
 10
4.275108288812236
 20
-4.297808243010346
 30
0.0
 10
4.278290608724622
 20
-4.29933853892448
 30
0.0
 10
4.28146423377383
 20
-4.300886224564932
 30
0.0
 10
4.290193876374941
 20
-4.335265713454242
 30
0.0
 10
4.321704060425241
 20
-4.38428735188567
 30
0.0
 10
4.36244818913926
 20
-4.37863569083912
 30
0.0
 10
4.417332339048597
 20
-4.371022251294688
 30
0.0
 10
4.493340658977306
 20
-4.247442161364575
 30
0.0
 10
4.551633195240862
 20
-4.130511468027306
 30
0.0
 10
4.562744143486776
 20
-4.134337207812665
 30
0.0
 10
4.575178884647079
 20
-4.13556427037449
 30
0.0
 10
4.587514721739075
 20
-4.1338579034816
 30
0.0
 10
4.59981795309424
 20
-4.072819964178885
 30
0.0
 10
4.628502306621258
 20
-4.001609034992397
 30
0.0
 10
4.718989747408032
 20
-3.955456701399978
 30
0.0
 10
4.707842932851614
 20
-4.03906650543628
 30
0.0
 10
4.599061500000314
 20
-4.188600761864765
 30
0.0
 10
4.541066762799598
 20
-4.248056236074439
 30
0.0
 10
4.514225720260078
 20
-4.275497224171216
 30
0.0
 10
4.529033072202032
 20
-4.31102443499612
 30
0.0
 10
4.550509384178895
 20
-4.309024616471953
 30
0.0
 10
4.550509384178895
 20
-4.309024616471953
 30
0.0
 10
4.560212851452661
 20
-4.307685607547088
 30
0.0
 10
4.560212851452661
 20
-4.307685607547088
 30
0.0
 10
4.582523870291803
 20
-4.304590236266209
 30
0.0
 10
4.612721130006674
 20
-4.301390526627541
 30
0.0
 10
4.64139678867054
 20
-4.301373136901248
 30
0.0
 10
4.619294446546948
 20
-4.320258379659864
 30
0.0
 10
4.596226974613905
 20
-4.339282740228858
 30
0.0
 10
4.571220548198704
 20
-4.358567946692308
 30
0.0
 10
4.525920311194846
 20
-4.395486335620982
 30
0.0
 10
4.483202448546106
 20
-4.443934113084601
 30
0.0
 10
4.491940786010369
 20
-4.506971870911482
 30
0.0
 10
4.495436120996096
 20
-4.532204363768515
 30
0.0
 10
4.508261044140176
 20
-4.546237872890249
 30
0.0
 10
4.526659374562465
 20
-4.550602694190817
 30
0.0
 10
4.53789313775039
 20
-4.581678135083684
 30
0.0
 10
4.563534289175398
 20
-4.609762543053446
 30
0.0
 10
4.590697041651437
 20
-4.605988972446981
 30
0.0
 10
4.681880071490089
 20
-4.593346641429005
 30
0.0
 10
4.802903871654532
 20
-4.396634057556589
 30
0.0
 10
4.790531081394167
 20
-4.30738998220003
 30
0.0
 10
4.788244332386108
 20
-4.290904521670415
 30
0.0
 10
4.775688949999625
 20
-4.278801272167672
 30
0.0
 10
4.757586244924394
 20
-4.269445599419833
 30
0.0
 10
4.79344386054893
 20
-4.231353403966105
 30
0.0
 10
4.829414509394407
 20
-4.187588897165849
 30
0.0
 10
4.861676799107045
 20
-4.144405859338664
 30
0.0
 10
4.868357714578805
 20
-4.166907078309186
 30
0.0
 10
4.88075224199704
 20
-4.183282766191547
 30
0.0
 10
4.896512768311646
 20
-4.193817679753894
 30
0.0
 10
4.912685213767923
 20
-4.267689237063829
 30
0.0
 10
4.982383236766585
 20
-4.292626104573817
 30
0.0
 10
5.028944228926977
 20
-4.286174516117613
 30
0.0
 10
5.139525498450035
 20
-4.270854167249897
 30
0.0
 10
5.230091193005162
 20
-4.104051912608421
 30
0.0
 10
5.224596039495282
 20
-4.064281608567032
 30
0.0
 10
5.222022360003317
 20
-4.045848498692142
 30
0.0
 10
5.209745213237587
 20
-4.035692898534649
 30
0.0
 10
5.193294532160558
 20
-4.031049841613341
 30
0.0
 10
5.193294532160558
 20
-4.031049841613341
 30
0.0
 10
5.189399233470011
 20
-4.031588923128538
 30
0.0
 10
5.189399233470011
 20
-4.031588923128538
 30
0.0
 10
5.147055249936657
 20
-4.125458665680108
 30
0.0
 10
5.051081350503131
 20
-4.189192012558881
 30
0.0
 10
4.980279079884641
 20
-4.19899981819041
 30
0.0
 10
4.972514567092983
 20
-4.200077981220829
 30
0.0
 10
4.964619631354126
 20
-4.200182319578618
 30
0.0
 10
4.957698520287876
 20
-4.200164929852311
 30
0.0
 10
4.95175123389428
 20
-4.164394262859256
 30
0.0
 10
4.953994508586624
 20
-4.123545795787436
 30
0.0
 10
4.964271836828175
 20
-4.083566815030482
 30
0.0
 10
4.974453521575115
 20
-4.099947937202311
 30
0.0
 10
4.999590370937514
 20
-4.117233325141594
 30
0.0
 10
5.023840344258789
 20
-4.113877107966269
 30
0.0
 10
5.093686179930955
 20
-4.104191030418797
 30
0.0
 10
5.191694677341224
 20
-3.976898233924266
 30
0.0
 10
5.179869663459209
 20
-3.891532067531961
 30
0.0
 10
5.177534005845953
 20
-3.874620558708064
 30
0.0
 10
5.165047095506755
 20
-3.860613134175777
 30
0.0
 10
5.15006802001762
 20
-3.852381272489904
 30
0.0
 10
5.161343083805478
 20
-3.796723279760347
 30
0.0
 10
5.175188566511628
 20
-3.741519593630326
 30
0.0
 10
5.190867578484231
 20
-3.68608331991105
 30
0.0
 10
5.341271321227547
 20
-3.551521617824341
 30
0.0
 10
5.475276552072753
 20
-3.398492026410142
 30
0.0
 10
5.465329628630848
 20
-3.326707236255857
 30
0.0
 10
5.462755949138884
 20
-3.308274126380954
 30
0.0
 10
5.443696809117278
 20
-3.299057571443516
 30
0.0
 10
5.434967166516167
 20
-3.30027485228431
 30
0.0
  0
SPLINE
  5
57
330
1F
100
AcDbEntity
  8
Layer 1
 62
     7
420
 16777215
370
     9
100
AcDbSpline
210
0.0
220
0.0
230
1.0
 70
    11
 71
     3
 72
    11
 73
     7
 74
     0
 42
0.0000000001
 43
0.0000000001
 12
1.0
 22
0.0
 32
0.0
 13
1.0
 23
0.0
 33
0.0
 40
0.0
 40
0.0
 40
0.0
 40
0.0
 40
1.0
 40
1.0
 40
1.0
 40
2.0
 40
2.0
 40
2.0
 40
2.0
 10
4.061457024668584
 20
-3.378076487737391
 30
0.0
 10
4.04371080898242
 20
-3.449739549807608
 30
0.0
 10
3.972230339038333
 20
-3.554564819926327
 30
0.0
 10
3.915079003563013
 20
-3.577327971649184
 30
0.0
 10
3.939537653599839
 20
-3.489892427827537
 30
0.0
 10
3.995141303434719
 20
-3.406056557349365
 30
0.0
 10
4.061457024668584
 20
-3.378076487737391
 30
0.0
  0
SPLINE
  5
58
330
1F
100
AcDbEntity
  8
Layer 1
 62
     7
420
 16777215
370
     9
100
AcDbSpline
210
0.0
220
0.0
230
1.0
 70
    11
 71
     3
 72
    14
 73
    10
 74
     0
 42
0.0000000001
 43
0.0000000001
 12
1.0
 22
0.0
 32
0.0
 13
1.0
 23
0.0
 33
0.0
 40
0.0
 40
0.0
 40
0.0
 40
0.0
 40
1.0
 40
1.0
 40
1.0
 40
2.0
 40
2.0
 40
2.0
 40
3.0
 40
3.0
 40
3.0
 40
3.0
 10
4.8133366205749
 20
-3.279720195801171
 30
0.0
 10
4.80514605948896
 20
-3.34907042427388
 30
0.0
 10
4.755367967963618
 20
-3.567554945470242
 30
0.0
 10
4.6377699438797
 20
-3.603621237810355
 30
0.0
 10
4.6377699438797
 20
-3.603621237810355
 30
0.0
 10
4.632918210242805
 20
-3.60429943713594
 30
0.0
 10
4.632918210242805
 20
-3.60429943713594
 30
0.0
 10
4.637813418195441
 20
-3.525523977010228
 30
0.0
 10
4.707085392899797
 20
-3.319160095042927
 30
0.0
 10
4.8133366205749
 20
-3.279720195801171
 30
0.0
  0
SPLINE
  5
59
330
1F
100
AcDbEntity
  8
Layer 1
 62
     7
420
 16777215
370
     9
100
AcDbSpline
210
0.0
220
0.0
230
1.0
 70
    11
 71
     3
 72
    20
 73
    16
 74
     0
 42
0.0000000001
 43
0.0000000001
 12
1.0
 22
0.0
 32
0.0
 13
1.0
 23
0.0
 33
0.0
 40
0.0
 40
0.0
 40
0.0
 40
0.0
 40
1.0
 40
1.0
 40
1.0
 40
2.0
 40
2.0
 40
2.0
 40
3.0
 40
3.0
 40
3.0
 40
4.0
 40
4.0
 40
4.0
 40
5.0
 40
5.0
 40
5.0
 40
5.0
 10
3.809074492629772
 20
-3.65980744347616
 30
0.0
 10
3.817475904147045
 20
-3.684576934870569
 30
0.0
 10
3.833312510514209
 20
-3.701550394594392
 30
0.0
 10
3.852484683756718
 20
-3.710568054537311
 30
0.0
 10
3.858306981492559
 20
-3.72843925888123
 30
0.0
 10
3.867058361251566
 20
-3.743344428033613
 30
0.0
 10
3.877682397161177
 20
-3.755790037772853
 30
0.0
 10
3.856426717336692
 20
-3.754961852057944
 30
0.0
 10
3.831770259163237
 20
-3.756204130630294
 30
0.0
 10
3.802655509910374
 20
-3.760239633989108
 30
0.0
 10
3.781797620074927
 20
-3.763132849701782
 30
0.0
 10
3.762801517811176
 20
-3.76656949436123
 30
0.0
 10
3.745195506793291
 20
-3.77038871299923
 30
0.0
 10
3.767781500679499
 20
-3.735544048931476
 30
0.0
 10
3.789707771824308
 20
-3.697094277230765
 30
0.0
 10
3.809074492629772
 20
-3.65980744347616
 30
0.0
  0
SPLINE
  5
5A
330
1F
100
AcDbEntity
  8
Layer 1
 62
     7
420
 16777215
370
     9
100
AcDbSpline
210
0.0
220
0.0
230
1.0
 70
    11
 71
     3
 72
    20
 73
    16
 74
     0
 42
0.0000000001
 43
0.0000000001
 12
1.0
 22
0.0
 32
0.0
 13
1.0
 23
0.0
 33
0.0
 40
0.0
 40
0.0
 40
0.0
 40
0.0
 40
1.0
 40
1.0
 40
1.0
 40
2.0
 40
2.0
 40
2.0
 40
3.0
 40
3.0
 40
3.0
 40
4.0
 40
4.0
 40
4.0
 40
5.0
 40
5.0
 40
5.0
 40
5.0
 10
3.425497344258524
 20
-3.776718573371365
 30
0.0
 10
3.425497344258524
 20
-3.776718573371365
 30
0.0
 10
3.417741526330031
 20
-3.777796736401771
 30
0.0
 10
3.417741526330031
 20
-3.777796736401771
 30
0.0
 10
3.449486471685329
 20
-3.635966128722897
 30
0.0
 10
3.569753818755847
 20
-3.31971656628443
 30
0.0
 10
3.565988943012548
 20
-3.292553813808404
 30
0.0
 10
3.564910779982117
 20
-3.284797995879936
 30
0.0
 10
3.559824285040223
 20
-3.276607434793997
 30
0.0
 10
3.550720763323713
 20
-3.267982130550649
 30
0.0
 10
3.604637609707765
 20
-3.257548294772416
 30
0.0
 10
3.657415429019364
 20
-3.253183473471848
 30
0.0
 10
3.702280922865801
 20
-3.255861491321601
 30
0.0
 10
3.713045163443692
 20
-3.433323648183166
 30
0.0
 10
3.533174529489972
 20
-3.761780798482176
 30
0.0
 10
3.425497344258524
 20
-3.776718573371365
 30
0.0
  0
SPLINE
  5
5B
330
1F
100
AcDbEntity
  8
Layer 1
 62
     7
420
 16777215
370
     9
100
AcDbSpline
210
0.0
220
0.0
230
1.0
 70
    11
 71
     3
 72
    20
 73
    16
 74
     0
 42
0.0000000001
 43
0.0000000001
 12
1.0
 22
0.0
 32
0.0
 13
1.0
 23
0.0
 33
0.0
 40
0.0
 40
0.0
 40
0.0
 40
0.0
 40
1.0
 40
1.0
 40
1.0
 40
2.0
 40
2.0
 40
2.0
 40
3.0
 40
3.0
 40
3.0
 40
4.0
 40
4.0
 40
4.0
 40
5.0
 40
5.0
 40
5.0
 40
5.0
 10
3.675606169583994
 20
-4.377001056567198
 30
0.0
 10
3.675606169583994
 20
-4.377001056567198
 30
0.0
 10
3.667850351655501
 20
-4.378079219597617
 30
0.0
 10
3.667850351655501
 20
-4.378079219597617
 30
0.0
 10
3.699595297010799
 20
-4.23624861191873
 30
0.0
 10
3.819862644081316
 20
-3.919999049480263
 30
0.0
 10
3.816097768338004
 20
-3.892836297004237
 30
0.0
 10
3.815019605307586
 20
-3.885080479075769
 30
0.0
 10
3.809933110365692
 20
-3.87688991798983
 30
0.0
 10
3.800829588649183
 20
-3.868264613746482
 30
0.0
 10
3.854746435033235
 20
-3.857830777968249
 30
0.0
 10
3.907524254344834
 20
-3.853465956667681
 30
0.0
 10
3.952389748191258
 20
-3.856143974517433
 30
0.0
 10
3.963153988769148
 20
-4.033606131378999
 30
0.0
 10
3.783283354815441
 20
-4.362063281678009
 30
0.0
 10
3.675606169583994
 20
-4.377001056567198
 30
0.0
  0
SPLINE
  5
5C
330
1F
100
AcDbEntity
  8
Layer 1
 62
     7
420
 16777215
370
     9
100
AcDbSpline
210
0.0
220
0.0
230
1.0
 70
    11
 71
     3
 72
    11
 73
     7
 74
     0
 42
0.0000000001
 43
0.0000000001
 12
1.0
 22
0.0
 32
0.0
 13
1.0
 23
0.0
 33
0.0
 40
0.0
 40
0.0
 40
0.0
 40
0.0
 40
1.0
 40
1.0
 40
1.0
 40
2.0
 40
2.0
 40
2.0
 40
2.0
 10
4.126382654656583
 20
-4.29469548200316
 30
0.0
 10
4.131164829388277
 20
-4.208025086138592
 30
0.0
 10
4.195332919424446
 20
-4.029067412815468
 30
0.0
 10
4.312391861993167
 20
-3.989105821784809
 30
0.0
 10
4.299393041586098
 20
-4.052213138516865
 30
0.0
 10
4.236998703632227
 20
-4.236839862612833
 30
0.0
 10
4.126382654656583
 20
-4.29469548200316
 30
0.0
  0
SPLINE
  5
5D
330
1F
100
AcDbEntity
  8
Layer 1
 62
     7
420
 16777215
370
     9
100
AcDbSpline
210
0.0
220
0.0
230
1.0
 70
    11
 71
     3
 72
    14
 73
    10
 74
     0
 42
0.0000000001
 43
0.0000000001
 12
1.0
 22
0.0
 32
0.0
 13
1.0
 23
0.0
 33
0.0
 40
0.0
 40
0.0
 40
0.0
 40
0.0
 40
1.0
 40
1.0
 40
1.0
 40
2.0
 40
2.0
 40
2.0
 40
3.0
 40
3.0
 40
3.0
 40
3.0
 10
4.556013232551928
 20
-4.519840268371303
 30
0.0
 10
4.580602305535977
 20
-4.433378549222286
 30
0.0
 10
4.641275060586445
 20
-4.364671740622573
 30
0.0
 10
4.716294339831999
 20
-4.306798731505928
 30
0.0
 10
4.720450484416991
 20
-4.308207299335992
 30
0.0
 10
4.723624109466199
 20
-4.309737595250137
 30
0.0
 10
4.726806429378585
 20
-4.311285280890577
 30
0.0
 10
4.701539157068939
 20
-4.392895266402712
 30
0.0
 10
4.629554385062217
 20
-4.486904126764657
 30
0.0
 10
4.556013232551928
 20
-4.519840268371303
 30
0.0
  0
SPLINE
  5
5E
330
1F
100
AcDbEntity
  8
Layer 1
 62
     7
420
 16777215
370
     9
100
AcDbSpline
210
0.0
220
0.0
230
1.0
 70
    11
 71
     3
 72
    11
 73
     7
 74
     0
 42
0.0000000001
 43
0.0000000001
 12
1.0
 22
0.0
 32
0.0
 13
1.0
 23
0.0
 33
0.0
 40
0.0
 40
0.0
 40
0.0
 40
0.0
 40
1.0
 40
1.0
 40
1.0
 40
2.0
 40
2.0
 40
2.0
 40
2.0
 10
4.968775775939118
 20
-4.066142309280811
 30
0.0
 10
4.993234425975944
 20
-3.978706765459163
 30
0.0
 10
5.048838075810813
 20
-3.894870894981004
 30
0.0
 10
5.115145102181537
 20
-3.866890825369018
 30
0.0
 10
5.097407581358539
 20
-3.938553887439234
 30
0.0
 10
5.025927111414426
 20
-4.043379157557953
 30
0.0
 10
4.968775775939118
 20
-4.066142309280811
 30
0.0
  0
SPLINE
  5
5F
330
1F
100
AcDbEntity
  8
Layer 1
 62
     7
420
 16777215
370
     9
100
AcDbSpline
210
0.0
220
0.0
230
1.0
 70
    11
 71
     3
 72
   122
 73
   118
 74
     0
 42
0.0000000001
 43
0.0000000001
 12
1.0
 22
0.0
 32
0.0
 13
1.0
 23
0.0
 33
0.0
 40
0.0
 40
0.0
 40
0.0
 40
0.0
 40
1.0
 40
1.0
 40
1.0
 40
2.0
 40
2.0
 40
2.0
 40
3.0
 40
3.0
 40
3.0
 40
4.0
 40
4.0
 40
4.0
 40
5.0
 40
5.0
 40
5.0
 40
6.0
 40
6.0
 40
6.0
 40
7.0
 40
7.0
 40
7.0
 40
8.0
 40
8.0
 40
8.0
 40
9.0
 40
9.0
 40
9.0
 40
10.0
 40
10.0
 40
10.0
 40
11.0
 40
11.0
 40
11.0
 40
12.0
 40
12.0
 40
12.0
 40
13.0
 40
13.0
 40
13.0
 40
14.0
 40
14.0
 40
14.0
 40
15.0
 40
15.0
 40
15.0
 40
16.0
 40
16.0
 40
16.0
 40
17.0
 40
17.0
 40
17.0
 40
18.0
 40
18.0
 40
18.0
 40
19.0
 40
19.0
 40
19.0
 40
20.0
 40
20.0
 40
20.0
 40
21.0
 40
21.0
 40
21.0
 40
22.0
 40
22.0
 40
22.0
 40
23.0
 40
23.0
 40
23.0
 40
24.0
 40
24.0
 40
24.0
 40
25.0
 40
25.0
 40
25.0
 40
26.0
 40
26.0
 40
26.0
 40
27.0
 40
27.0
 40
27.0
 40
28.0
 40
28.0
 40
28.0
 40
29.0
 40
29.0
 40
29.0
 40
30.0
 40
30.0
 40
30.0
 40
31.0
 40
31.0
 40
31.0
 40
32.0
 40
32.0
 40
32.0
 40
33.0
 40
33.0
 40
33.0
 40
34.0
 40
34.0
 40
34.0
 40
35.0
 40
35.0
 40
35.0
 40
36.0
 40
36.0
 40
36.0
 40
37.0
 40
37.0
 40
37.0
 40
38.0
 40
38.0
 40
38.0
 40
39.0
 40
39.0
 40
39.0
 40
39.0
 10
5.124021470598286
 20
-3.67458871082868
 30
0.0
 10
5.077990865089961
 20
-3.720514977979241
 30
0.0
 10
5.037107618565541
 20
-3.760789584083252
 30
0.0
 10
5.043559207021771
 20
-3.807341881380504
 30
0.0
 10
5.04387222209511
 20
-3.80959819836754
 30
0.0
 10
5.044651499204797
 20
-3.811530631702301
 30
0.0
 10
5.04514928012006
 20
-3.813660873173692
 30
0.0
 10
4.965215229479782
 20
-3.835600186613242
 30
0.0
 10
4.88289009147368
 20
-3.949415945227543
 30
0.0
 10
4.861397476628402
 20
-4.053107622563276
 30
0.0
 10
4.801163812166932
 20
-4.140636636163777
 30
0.0
 10
4.749342427801669
 20
-4.200515984951936
 30
0.0
 10
4.696722202884656
 20
-4.251186386807906
 30
0.0
 10
4.684679817423936
 20
-4.249899547061937
 30
0.0
 10
4.673602561772693
 20
-4.248456199779272
 30
0.0
 10
4.662664423931852
 20
-4.248004066895545
 30
0.0
 10
4.754299586654244
 20
-4.160151169642758
 30
0.0
 10
4.826945168260232
 20
-4.006721614523737
 30
0.0
 10
4.820624002751249
 20
-3.961143141899129
 30
0.0
 10
4.814972341704712
 20
-3.920399013185096
 30
0.0
 10
4.772784865708015
 20
-3.908452271219011
 30
0.0
 10
4.739961757322312
 20
-3.907061093115241
 30
0.0
 10
4.726736870473385
 20
-3.890123499701897
 30
0.0
 10
4.705321422538544
 20
-3.878263706367306
 30
0.0
 10
4.673306936425635
 20
-3.88269808657305
 30
0.0
 10
4.589175440600431
 20
-3.89437094034996
 30
0.0
 10
4.506541634952555
 20
-4.012360233275558
 30
0.0
 10
4.513580126671286
 20
-4.083553772735753
 30
0.0
 10
4.468114687267618
 20
-4.157482933514075
 30
0.0
 10
4.410390577682392
 20
-4.23359993923211
 30
0.0
 10
4.344606329958475
 20
-4.271358469312493
 30
0.0
 10
4.369386689931793
 20
-4.172028352703655
 30
0.0
 10
4.427790085700508
 20
-4.015625154387837
 30
0.0
 10
4.460161061202497
 20
-3.956760930872267
 30
0.0
 10
4.456822233753453
 20
-3.925581151621625
 30
0.0
 10
4.376751239018605
 20
-3.897148949125911
 30
0.0
 10
4.355674890746564
 20
-3.937632231945486
 30
0.0
 10
4.355674890746564
 20
-3.937632231945486
 30
0.0
 10
4.338067792870788
 20
-3.974672348958241
 30
0.0
 10
4.338067792870788
 20
-3.974672348958241
 30
0.0
 10
4.330155467405626
 20
-3.946118418378457
 30
0.0
 10
4.299662582343696
 20
-3.918712209734281
 30
0.0
 10
4.24533707739167
 20
-3.926241961220903
 30
0.0
 10
4.180499482893057
 20
-3.93522701542703
 30
0.0
 10
4.094142102101816
 20
-4.034199555788897
 30
0.0
 10
4.06335685226654
 20
-4.142100633746407
 30
0.0
 10
4.024476684839972
 20
-4.207199074139478
 30
0.0
 10
3.975178984503575
 20
-4.277282931690353
 30
0.0
 10
3.91888952733786
 20
-4.323468957877455
 30
0.0
 10
4.007835803631577
 20
-4.188899647785497
 30
0.0
 10
4.061641790510495
 20
-4.002331795491626
 30
0.0
 10
4.045746493817079
 20
-3.887688938020308
 30
0.0
 10
4.041407757105958
 20
-3.863586777372575
 30
0.0
 10
4.02112264138043
 20
-3.845623190107706
 30
0.0
 10
3.99901160439371
 20
-3.835850163928752
 30
0.0
 10
3.995110871413696
 20
-3.82144168883374
 30
0.0
 10
3.989011424914995
 20
-3.807835314864178
 30
0.0
 10
3.979489462909466
 20
-3.79598639010851
 30
0.0
 10
3.982935889289958
 20
-3.795745107656141
 30
0.0
 10
3.986304061902122
 20
-3.795827708856045
 30
0.0
 10
3.989802657461521
 20
-3.795342970235525
 30
0.0
 10
4.092882433803172
 20
-3.781060570656172
 30
0.0
 10
4.240641851291457
 20
-3.519764717032217
 30
0.0
 10
4.283733593055583
 20
-3.393296845678909
 30
0.0
 10
4.298280099103092
 20
-3.398310521141916
 30
0.0
 10
4.313404813549974
 20
-3.401750426375075
 30
0.0
 10
4.330041347326793
 20
-3.403100303878874
 30
0.0
 10
4.276828784857773
 20
-3.511316570625518
 30
0.0
 10
4.251057210485505
 20
-3.582127536107186
 30
0.0
 10
4.25656975372168
 20
-3.621897840148575
 30
0.0
 10
4.261543215442645
 20
-3.657790235225725
 30
0.0
 10
4.284036826407903
 20
-3.677405846488808
 30
0.0
 10
4.307825971982285
 20
-3.684987767154325
 30
0.0
 10
4.320998689652318
 20
-3.71578497242644
 30
0.0
 10
4.344970427352816
 20
-3.746077875635933
 30
0.0
 10
4.381827952239468
 20
-3.740965296104592
 30
0.0
 10
4.423381790084199
 20
-3.735201688695004
 30
0.0
 10
4.475529231817518
 20
-3.663151705214684
 30
0.0
 10
4.522835808492901
 20
-3.577885529748603
 30
0.0
 10
4.514820231527866
 20
-3.607050274464553
 30
0.0
 10
4.509702217707045
 20
-3.628302693715366
 30
0.0
 10
4.50897293606047
 20
-3.637305137647773
 30
0.0
 10
4.504782012022866
 20
-3.678414450614039
 30
0.0
 10
4.542578582129559
 20
-3.715698023794958
 30
0.0
 10
4.581383756361447
 20
-3.710307208642866
 30
0.0
 10
4.581383756361447
 20
-3.710307208642866
 30
0.0
 10
4.604999004672865
 20
-3.623984607304224
 30
0.0
 10
4.604999004672865
 20
-3.623984607304224
 30
0.0
 10
4.612198351359868
 20
-3.625967036102085
 30
0.0
 10
4.620093287098724
 20
-3.625845308018004
 30
0.0
 10
4.625910150545097
 20
-3.625045380608336
 30
0.0
 10
4.636439629817965
 20
-3.658190198930545
 30
0.0
 10
4.660359198339594
 20
-3.702325324272503
 30
0.0
 10
4.714676008428468
 20
-3.69479557278588
 30
0.0
 10
4.74086493623185
 20
-3.691161119989791
 30
0.0
 10
4.770053591821478
 20
-3.666363370290178
 30
0.0
 10
4.796659873055988
 20
-3.630036232055595
 30
0.0
 10
4.824918178288726
 20
-3.627114758037692
 30
0.0
 10
4.853906852025956
 20
-3.6151854057979
 30
0.0
 10
4.881417399027896
 20
-3.592578761611712
 30
0.0
 10
4.903338235883262
 20
-3.574833632783465
 30
0.0
 10
4.934715823270531
 20
-3.538891242243203
 30
0.0
 10
4.966645534467716
 20
-3.493623610976151
 30
0.0
 10
4.965370650158572
 20
-3.507754937308302
 30
0.0
 10
4.965238053495568
 20
-3.520532038705066
 30
0.0
 10
4.966731396241332
 20
-3.531297366140848
 30
0.0
 10
4.969409414091059
 20
-3.550686910962074
 30
0.0
 10
4.977130452566977
 20
-3.563468359790426
 30
0.0
 10
4.9881555390393
 20
-3.571815428413022
 30
0.0
 10
4.99551139326296
 20
-3.603429950821085
 30
0.0
 10
5.013648877790804
 20
-3.641443892506471
 30
0.0
 10
5.061870588812578
 20
-3.632783808810536
 30
0.0
 10
5.113152891662619
 20
-3.624680196356091
 30
0.0
 10
5.163548318471536
 20
-3.524758829053149
 30
0.0
 10
5.196414901172981
 20
-3.448035356630486
 30
0.0
 10
5.167826191140597
 20
-3.527123831829549
 30
0.0
 10
5.141898109231684
 20
-3.603882083704825
 30
0.0
 10
5.124021470598286
 20
-3.67458871082868
 30
0.0
  0
ENDSEC
  0
SECTION
  2
OBJECTS
  0
DICTIONARY
  5
C
330
0
100
AcDbDictionary
281
     1
  3
ACAD_GROUP
350
D
  3
ACAD_LAYOUT
350
1A
  3
ACAD_MATERIAL
350
3B
  3
ACAD_MLEADERSTYLE
350
61
  3
ACAD_MLINESTYLE
350
17
  3
ACAD_PLOTSETTINGS
350
19
  3
ACAD_PLOTSTYLENAME
350
E
  3
ACAD_TABLESTYLE
350
60
  3
ACAD_VISUALSTYLE
350
2A
  0
SUN
  5
3F
330
29
100
AcDbSun
 90
        1
290
     0
 63
     7
421
 16777215
 40
1.0
291
     1
 91
  2455826
 92
 54000000
292
     0
 70
     2
 71
   256
280
     1
  0
DICTIONARY
  5
D
102
{ACAD_REACTORS
330
C
102
}
330
C
100
AcDbDictionary
281
     1
  0
DICTIONARY
  5
1A
102
{ACAD_REACTORS
330
C
102
}
330
C
100
AcDbDictionary
281
     1
  3
Layout1
350
1E
  3
Layout2
350
26
  3
Model
350
22
  0
DICTIONARY
  5
3B
102
{ACAD_REACTORS
330
C
102
}
330
C
100
AcDbDictionary
281
     1
  3
ByBlock
350
3D
  3
ByLayer
350
3C
  3
Global
350
3E
  0
DICTIONARY
  5
61
102
{ACAD_REACTORS
330
C
102
}
330
C
100
AcDbDictionary
281
     1
  0
DICTIONARY
  5
17
102
{ACAD_REACTORS
330
C
102
}
330
C
100
AcDbDictionary
281
     1
  3
Standard
350
18
  0
DICTIONARY
  5
19
102
{ACAD_REACTORS
330
C
102
}
330
C
100
AcDbDictionary
281
     1
  0
ACDBDICTIONARYWDFLT
  5
E
102
{ACAD_REACTORS
330
C
102
}
330
C
100
AcDbDictionary
281
     1
  3
Normal
350
F
100
AcDbDictionaryWithDefault
340
F
  0
DICTIONARY
  5
60
102
{ACAD_REACTORS
330
C
102
}
330
C
100
AcDbDictionary
281
     1
  0
DICTIONARY
  5
2A
102
{ACAD_REACTORS
330
C
102
}
330
C
100
AcDbDictionary
281
     1
  3
2dWireframe
350
2F
  3
3D Hidden
350
31
  3
3dWireframe
350
30
  3
Basic
350
32
  3
Brighten
350
36
  3
ColorChange
350
3A
  3
Conceptual
350
34
  3
Dim
350
35
  3
Facepattern
350
39
  3
Flat
350
2B
  3
FlatWithEdges
350
2C
  3
Gouraud
350
2D
  3
GouraudWithEdges
350
2E
  3
Linepattern
350
38
  3
Realistic
350
33
  3
Thicken
350
37
  0
LAYOUT
  5
1E
102
{ACAD_REACTORS
330
1A
102
}
330
1A
100
AcDbPlotSettings
  1

  2
none_device
  4

  6

 40
0.0
 41
0.0
 42
0.0
 43
0.0
 44
0.0
 45
0.0
 46
0.0
 47
0.0
 48
0.0
 49
0.0
140
0.0
141
0.0
142
1.0
143
1.0
 70
   688
 72
     0
 73
     0
 74
     5
  7

 75
    16
 76
     0
 77
     2
 78
   300
147
1.0
148
0.0
149
0.0
100
AcDbLayout
  1
Layout1
 70
     1
 71
     1
 10
0.0
 20
0.0
 11
12.0
 21
9.0
 12
0.0
 22
0.0
 32
0.0
 14
1.000000000000000E+20
 24
1.000000000000000E+20
 34
1.000000000000000E+20
 15
-1.000000000000000E+20
 25
-1.000000000000000E+20
 35
-1.000000000000000E+20
146
0.0
 13
0.0
 23
0.0
 33
0.0
 16
1.0
 26
0.0
 36
0.0
 17
0.0
 27
1.0
 37
0.0
 76
     0
330
1B
  0
LAYOUT
  5
26
102
{ACAD_REACTORS
330
1A
102
}
330
1A
100
AcDbPlotSettings
  1

  2
none_device
  4

  6

 40
0.0
 41
0.0
 42
0.0
 43
0.0
 44
0.0
 45
0.0
 46
0.0
 47
0.0
 48
0.0
 49
0.0
140
0.0
141
0.0
142
1.0
143
1.0
 70
   688
 72
     0
 73
     0
 74
     5
  7

 75
    16
 76
     0
 77
     2
 78
   300
147
1.0
148
0.0
149
0.0
100
AcDbLayout
  1
Layout2
 70
     1
 71
     2
 10
0.0
 20
0.0
 11
0.0
 21
0.0
 12
0.0
 22
0.0
 32
0.0
 14
0.0
 24
0.0
 34
0.0
 15
0.0
 25
0.0
 35
0.0
146
0.0
 13
0.0
 23
0.0
 33
0.0
 16
1.0
 26
0.0
 36
0.0
 17
0.0
 27
1.0
 37
0.0
 76
     0
330
23
  0
LAYOUT
  5
22
102
{ACAD_REACTORS
330
1A
102
}
330
1A
100
AcDbPlotSettings
  1

  2
none_device
  4

  6

 40
0.0
 41
0.0
 42
0.0
 43
0.0
 44
0.0
 45
0.0
 46
0.0
 47
0.0
 48
0.0
 49
0.0
140
0.0
141
0.0
142
1.0
143
1.0
 70
  1712
 72
     0
 73
     0
 74
     0
  7

 75
     0
 76
     0
 77
     2
 78
   300
147
1.0
148
0.0
149
0.0
100
AcDbLayout
  1
Model
 70
     1
 71
     0
 10
0.0
 20
0.0
 11
12.0
 21
9.0
 12
0.0
 22
0.0
 32
0.0
 14
1.000000000000000E+20
 24
1.000000000000000E+20
 34
1.000000000000000E+20
 15
-1.000000000000000E+20
 25
-1.000000000000000E+20
 35
-1.000000000000000E+20
146
0.0
 13
0.0
 23
0.0
 33
0.0
 16
1.0
 26
0.0
 36
0.0
 17
0.0
 27
1.0
 37
0.0
 76
     0
330
1F
331
29
  0
MATERIAL
  5
3D
102
{ACAD_REACTORS
330
3B
102
}
330
3B
100
AcDbMaterial
  1
ByBlock
 72
     1
 94
      127
  0
MATERIAL
  5
3C
102
{ACAD_REACTORS
330
3B
102
}
330
3B
100
AcDbMaterial
  1
ByLayer
 72
     1
 94
      127
  0
MATERIAL
  5
3E
102
{ACAD_REACTORS
330
3B
102
}
330
3B
100
AcDbMaterial
  1
Global
 72
     1
 94
      127
  0
MLINESTYLE
  5
18
102
{ACAD_REACTORS
330
17
102
}
330
17
100
AcDbMlineStyle
  2
Standard
 70
     0
  3

 62
   256
 51
90.0
 52
90.0
 71
     2
 49
0.5
 62
   256
  6
BYLAYER
 49
-0.5
 62
   256
  6
BYLAYER
  0
ACDBPLACEHOLDER
  5
F
102
{ACAD_REACTORS
330
E
102
}
330
E
  0
VISUALSTYLE
  5
2F
102
{ACAD_REACTORS
330
2A
102
}
330
2A
100
AcDbVisualStyle
  2
2dWireframe
 70
     4
177
     2
291
     0
 71
     0
176
     1
 72
     2
176
     1
 73
     0
176
     1
 90
        0
176
     1
 40
-0.6
176
     1
 41
-30.0
176
     1
 62
     5
 63
     7
421
 16777215
176
     1
 74
     1
176
     1
 91
        4
176
     1
 64
     7
176
     1
 65
   257
176
     1
 75
     1
176
     1
175
     1
176
     1
 42
1.0
176
     1
 92
        0
176
     1
 66
   257
176
     1
 43
1.0
176
     1
 76
     1
176
     1
 77
     6
176
     1
 78
     2
176
     1
 67
     7
176
     1
 79
     5
176
     1
170
     0
176
     1
171
     0
176
     1
290
     0
176
     1
 93
        1
176
     1
 44
0.0
176
     1
173
     0
176
     1
  0
VISUALSTYLE
  5
31
102
{ACAD_REACTORS
330
2A
102
}
330
2A
100
AcDbVisualStyle
  2
3D Hidden
 70
     6
177
     2
291
     0
 71
     1
176
     1
 72
     2
176
     1
 73
     2
176
     1
 90
        0
176
     1
 40
-0.6
176
     1
 41
-30.0
176
     1
 62
     5
 63
     7
421
 16777215
176
     1
 74
     2
176
     1
 91
        2
176
     1
 64
     7
176
     1
 65
   257
176
     1
 75
     2
176
     1
175
     1
176
     1
 42
40.0
176
     1
 92
        0
176
     1
 66
   257
176
     1
 43
1.0
176
     1
 76
     1
176
     1
 77
     6
176
     1
 78
     2
176
     1
 67
     7
176
     1
 79
     3
176
     1
170
     0
176
     1
171
     0
176
     1
290
     0
176
     1
 93
        1
176
     1
 44
0.0
176
     1
173
     0
176
     1
  0
VISUALSTYLE
  5
30
102
{ACAD_REACTORS
330
2A
102
}
330
2A
100
AcDbVisualStyle
  2
3dWireframe
 70
     5
177
     2
291
     0
 71
     0
176
     1
 72
     2
176
     1
 73
     0
176
     1
 90
        0
176
     1
 40
-0.6
176
     1
 41
-30.0
176
     1
 62
     5
 63
     7
421
 16777215
176
     1
 74
     1
176
     1
 91
        4
176
     1
 64
     7
176
     1
 65
   257
176
     1
 75
     1
176
     1
175
     1
176
     1
 42
1.0
176
     1
 92
        0
176
     1
 66
   257
176
     1
 43
1.0
176
     1
 76
     1
176
     1
 77
     6
176
     1
 78
     2
176
     1
 67
     7
176
     1
 79
     5
176
     1
170
     0
176
     1
171
     0
176
     1
290
     0
176
     1
 93
        1
176
     1
 44
0.0
176
     1
173
     0
176
     1
  0
VISUALSTYLE
  5
32
102
{ACAD_REACTORS
330
2A
102
}
330
2A
100
AcDbVisualStyle
  2
Basic
 70
     7
177
     2
291
     1
 71
     1
176
     1
 72
     0
176
     1
 73
     1
176
     1
 90
        0
176
     1
 40
-0.6
176
     1
 41
-30.0
176
     1
 62
     5
 63
     7
421
 16777215
176
     1
 74
     0
176
     1
 91
        4
176
     1
 64
     7
176
     1
 65
   257
176
     1
 75
     1
176
     1
175
     1
176
     1
 42
1.0
176
     1
 92
        8
176
     1
 66
     7
176
     1
 43
1.0
176
     1
 76
     1
176
     1
 77
     6
176
     1
 78
     2
176
     1
 67
     7
176
     1
 79
     5
176
     1
170
     0
176
     1
171
     0
176
     1
290
     0
176
     1
 93
        1
176
     1
 44
0.0
176
     1
173
     0
176
     1
  0
VISUALSTYLE
  5
36
102
{ACAD_REACTORS
330
2A
102
}
330
2A
100
AcDbVisualStyle
  2
Brighten
 70
    12
177
     2
291
     1
 71
     2
176
     1
 72
     2
176
     1
 73
     0
176
     1
 90
        0
176
     1
 40
-0.6
176
     1
 41
-30.0
176
     1
 62
     5
 63
     7
421
 16777215
176
     1
 74
     1
176
     1
 91
        4
176
     1
 64
     7
176
     1
 65
   257
176
     1
 75
     1
176
     1
175
     1
176
     1
 42
1.0
176
     1
 92
        8
176
     1
 66
     7
176
     1
 43
1.0
176
     1
 76
     1
176
     1
 77
     6
176
     1
 78
     2
176
     1
 67
     7
176
     1
 79
     5
176
     1
170
     0
176
     1
171
     0
176
     1
290
     0
176
     1
 93
        1
176
     1
 44
50.0
176
     1
173
     0
176
     1
  0
VISUALSTYLE
  5
3A
102
{ACAD_REACTORS
330
2A
102
}
330
2A
100
AcDbVisualStyle
  2
ColorChange
 70
    16
177
     2
291
     1
 71
     2
176
     1
 72
     2
176
     1
 73
     3
176
     1
 90
        0
176
     1
 40
-0.6
176
     1
 41
-30.0
176
     1
 62
     5
 63
     8
421
  8421504
176
     1
 74
     1
176
     1
 91
        4
176
     1
 64
     7
176
     1
 65
   257
176
     1
 75
     1
176
     1
175
     1
176
     1
 42
1.0
176
     1
 92
        8
176
     1
 66
     8
424
  8421504
176
     1
 43
1.0
176
     1
 76
     1
176
     1
 77
     6
176
     1
 78
     2
176
     1
 67
     7
176
     1
 79
     5
176
     1
170
     0
176
     1
171
     0
176
     1
290
     0
176
     1
 93
        1
176
     1
 44
0.0
176
     1
173
     0
176
     1
  0
VISUALSTYLE
  5
34
102
{ACAD_REACTORS
330
2A
102
}
330
2A
100
AcDbVisualStyle
  2
Conceptual
 70
     9
177
     2
291
     0
 71
     3
176
     1
 72
     2
176
     1
 73
     0
176
     1
 90
        0
176
     1
 40
-0.6
176
     1
 41
-30.0
176
     1
 62
     5
 63
     7
421
 16777215
176
     1
 74
     2
176
     1
 91
        2
176
     1
 64
     7
176
     1
 65
   257
176
     1
 75
     1
176
     1
175
     1
176
     1
 42
40.0
176
     1
 92
        8
176
     1
 66
     7
176
     1
 43
1.0
176
     1
 76
     1
176
     1
 77
     6
176
     1
 78
     2
176
     1
 67
     7
176
     1
 79
     3
176
     1
170
     0
176
     1
171
     0
176
     1
290
     0
176
     1
 93
        1
176
     1
 44
0.0
176
     1
173
     0
176
     1
  0
VISUALSTYLE
  5
35
102
{ACAD_REACTORS
330
2A
102
}
330
2A
100
AcDbVisualStyle
  2
Dim
 70
    11
177
     2
291
     1
 71
     2
176
     1
 72
     2
176
     1
 73
     0
176
     1
 90
        0
176
     1
 40
-0.6
176
     1
 41
-30.0
176
     1
 62
     5
 63
     7
421
 16777215
176
     1
 74
     1
176
     1
 91
        4
176
     1
 64
     7
176
     1
 65
   257
176
     1
 75
     1
176
     1
175
     1
176
     1
 42
1.0
176
     1
 92
        8
176
     1
 66
     7
176
     1
 43
1.0
176
     1
 76
     1
176
     1
 77
     6
176
     1
 78
     2
176
     1
 67
     7
176
     1
 79
     5
176
     1
170
     0
176
     1
171
     0
176
     1
290
     0
176
     1
 93
        1
176
     1
 44
-50.0
176
     1
173
     0
176
     1
  0
VISUALSTYLE
  5
39
102
{ACAD_REACTORS
330
2A
102
}
330
2A
100
AcDbVisualStyle
  2
Facepattern
 70
    15
177
     2
291
     1
 71
     2
176
     1
 72
     2
176
     1
 73
     0
176
     1
 90
        0
176
     1
 40
-0.6
176
     1
 41
-30.0
176
     1
 62
     5
 63
     7
421
 16777215
176
     1
 74
     1
176
     1
 91
        4
176
     1
 64
     7
176
     1
 65
   257
176
     1
 75
     1
176
     1
175
     1
176
     1
 42
1.0
176
     1
 92
        8
176
     1
 66
     7
176
     1
 43
1.0
176
     1
 76
     1
176
     1
 77
     6
176
     1
 78
     2
176
     1
 67
     7
176
     1
 79
     5
176
     1
170
     0
176
     1
171
     0
176
     1
290
     0
176
     1
 93
        1
176
     1
 44
0.0
176
     1
173
     0
176
     1
  0
VISUALSTYLE
  5
2B
102
{ACAD_REACTORS
330
2A
102
}
330
2A
100
AcDbVisualStyle
  2
Flat
 70
     0
177
     2
291
     1
 71
     2
176
     1
 72
     1
176
     1
 73
     1
176
     1
 90
        2
176
     1
 40
-0.6
176
     1
 41
30.0
176
     1
 62
     5
 63
     7
421
 16777215
176
     1
 74
     0
176
     1
 91
        4
176
     1
 64
     7
176
     1
 65
   257
176
     1
 75
     1
176
     1
175
     1
176
     1
 42
1.0
176
     1
 92
        8
176
     1
 66
     7
176
     1
 43
1.0
176
     1
 76
     1
176
     1
 77
     6
176
     1
 78
     2
176
     1
 67
     7
176
     1
 79
     5
176
     1
170
     0
176
     1
171
     0
176
     1
290
     0
176
     1
 93
       13
176
     1
 44
0.0
176
     1
173
     0
176
     1
  0
VISUALSTYLE
  5
2C
102
{ACAD_REACTORS
330
2A
102
}
330
2A
100
AcDbVisualStyle
  2
FlatWithEdges
 70
     1
177
     2
291
     1
 71
     2
176
     1
 72
     1
176
     1
 73
     1
176
     1
 90
        2
176
     1
 40
-0.6
176
     1
 41
30.0
176
     1
 62
     5
 63
     7
421
 16777215
176
     1
 74
     1
176
     1
 91
        4
176
     1
 64
     7
176
     1
 65
   257
176
     1
 75
     1
176
     1
175
     1
176
     1
 42
1.0
176
     1
 92
        0
176
     1
 66
   257
176
     1
 43
1.0
176
     1
 76
     1
176
     1
 77
     6
176
     1
 78
     2
176
     1
 67
     7
176
     1
 79
     5
176
     1
170
     0
176
     1
171
     0
176
     1
290
     0
176
     1
 93
       13
176
     1
 44
0.0
176
     1
173
     0
176
     1
  0
VISUALSTYLE
  5
2D
102
{ACAD_REACTORS
330
2A
102
}
330
2A
100
AcDbVisualStyle
  2
Gouraud
 70
     2
177
     2
291
     1
 71
     2
176
     1
 72
     2
176
     1
 73
     1
176
     1
 90
        2
176
     1
 40
-0.6
176
     1
 41
30.0
176
     1
 62
     5
 63
     7
421
 16777215
176
     1
 74
     0
176
     1
 91
        4
176
     1
 64
     7
176
     1
 65
   257
176
     1
 75
     1
176
     1
175
     1
176
     1
 42
1.0
176
     1
 92
        0
176
     1
 66
     7
176
     1
 43
1.0
176
     1
 76
     1
176
     1
 77
     6
176
     1
 78
     2
176
     1
 67
     7
176
     1
 79
     5
176
     1
170
     0
176
     1
171
     0
176
     1
290
     0
176
     1
 93
       13
176
     1
 44
0.0
176
     1
173
     0
176
     1
  0
VISUALSTYLE
  5
2E
102
{ACAD_REACTORS
330
2A
102
}
330
2A
100
AcDbVisualStyle
  2
GouraudWithEdges
 70
     3
177
     2
291
     1
 71
     2
176
     1
 72
     2
176
     1
 73
     1
176
     1
 90
        2
176
     1
 40
-0.6
176
     1
 41
30.0
176
     1
 62
     5
 63
     7
421
 16777215
176
     1
 74
     1
176
     1
 91
        4
176
     1
 64
     7
176
     1
 65
   257
176
     1
 75
     1
176
     1
175
     1
176
     1
 42
1.0
176
     1
 92
        0
176
     1
 66
   257
176
     1
 43
1.0
176
     1
 76
     1
176
     1
 77
     6
176
     1
 78
     2
176
     1
 67
     7
176
     1
 79
     5
176
     1
170
     0
176
     1
171
     0
176
     1
290
     0
176
     1
 93
       13
176
     1
 44
0.0
176
     1
173
     0
176
     1
  0
VISUALSTYLE
  5
38
102
{ACAD_REACTORS
330
2A
102
}
330
2A
100
AcDbVisualStyle
  2
Linepattern
 70
    14
177
     2
291
     1
 71
     2
176
     1
 72
     2
176
     1
 73
     0
176
     1
 90
        0
176
     1
 40
-0.6
176
     1
 41
-30.0
176
     1
 62
     5
 63
     7
421
 16777215
176
     1
 74
     1
176
     1
 91
        4
176
     1
 64
     7
176
     1
 65
   257
176
     1
 75
     7
176
     1
175
     7
176
     1
 42
1.0
176
     1
 92
        8
176
     1
 66
     7
176
     1
 43
1.0
176
     1
 76
     1
176
     1
 77
     6
176
     1
 78
     2
176
     1
 67
     7
176
     1
 79
     5
176
     1
170
     0
176
     1
171
     0
176
     1
290
     0
176
     1
 93
        1
176
     1
 44
0.0
176
     1
173
     0
176
     1
  0
VISUALSTYLE
  5
33
102
{ACAD_REACTORS
330
2A
102
}
330
2A
100
AcDbVisualStyle
  2
Realistic
 70
     8
177
     2
291
     0
 71
     2
176
     1
 72
     2
176
     1
 73
     0
176
     1
 90
        0
176
     1
 40
-0.6
176
     1
 41
-30.0
176
     1
 62
     5
 63
     7
421
 16777215
176
     1
 74
     1
176
     1
 91
        0
176
     1
 64
     7
176
     1
 65
   257
176
     1
 75
     1
176
     1
175
     1
176
     1
 42
1.0
176
     1
 92
        8
176
     1
 66
     8
424
  7895160
176
     1
 43
1.0
176
     1
 76
     1
176
     1
 77
     6
176
     1
 78
     2
176
     1
 67
     7
176
     1
 79
     5
176
     1
170
     0
176
     1
171
     0
176
     1
290
     0
176
     1
 93
       13
176
     1
 44
0.0
176
     1
173
     0
176
     1
  0
VISUALSTYLE
  5
37
102
{ACAD_REACTORS
330
2A
102
}
330
2A
100
AcDbVisualStyle
  2
Thicken
 70
    13
177
     2
291
     1
 71
     2
176
     1
 72
     2
176
     1
 73
     0
176
     1
 90
        0
176
     1
 40
-0.6
176
     1
 41
-30.0
176
     1
 62
     5
 63
     7
421
 16777215
176
     1
 74
     1
176
     1
 91
        4
176
     1
 64
     7
176
     1
 65
   257
176
     1
 75
     1
176
     1
175
     1
176
     1
 42
1.0
176
     1
 92
       12
176
     1
 66
     7
176
     1
 43
1.0
176
     1
 76
     1
176
     1
 77
     6
176
     1
 78
     2
176
     1
 67
     7
176
     1
 79
     5
176
     1
170
     0
176
     1
171
     0
176
     1
290
     0
176
     1
 93
        1
176
     1
 44
0.0
176
     1
173
     0
176
     1
  0
ENDSEC
  0
EOF
