  0
SECTION
  2
HEADER
  9
$ACADVER
  1
AC1024
  9
$ACADMAINTVER
 70
     6
  9
$DWGCODEPAGE
  3
UNDEFINED
  9
$INSBASE
 10
0.0
 20
0.0
 30
0.0
  9
$EXTMIN
 10
1.000000000000000E+20
 20
1.000000000000000E+20
 30
1.000000000000000E+20
  9
$EXTMAX
 10
-1.000000000000000E+20
 20
-1.000000000000000E+20
 30
-1.000000000000000E+20
  9
$LIMMIN
 10
0.0
 20
0.0
  9
$LIMMAX
 10
12.0
 20
9.0
  9
$ORTHOMODE
 70
     0
  9
$REGENMODE
 70
     1
  9
$FILLMODE
 70
     1
  9
$QTEXTMODE
 70
     0
  9
$MIRRTEXT
 70
     1
  9
$LTSCALE
 40
1.0
  9
$ATTMODE
 70
     1
  9
$TEXTSIZE
 40
0.2
  9
$TRACEWID
 40
0.05
  9
$TEXTSTYLE
  7
Standard
  9
$CLAYER
  8
0
  9
$CELTYPE
  6
ByLayer
  9
$CECOLOR
 62
   256
  9
$CELTSCALE
 40
1.0
  9
$DISPSILH
 70
     0
  9
$DIMSCALE
 40
1.0
  9
$DIMASZ
 40
0.18
  9
$DIMEXO
 40
0.0625
  9
$DIMDLI
 40
0.38
  9
$DIMRND
 40
0.0
  9
$DIMDLE
 40
0.0
  9
$DIMEXE
 40
0.18
  9
$DIMTP
 40
0.0
  9
$DIMTM
 40
0.0
  9
$DIMTXT
 40
0.18
  9
$DIMCEN
 40
0.09
  9
$DIMTSZ
 40
0.0
  9
$DIMTOL
 70
     0
  9
$DIMLIM
 70
     0
  9
$DIMTIH
 70
     1
  9
$DIMTOH
 70
     1
  9
$DIMSE1
 70
     0
  9
$DIMSE2
 70
     0
  9
$DIMTAD
 70
     0
  9
$DIMZIN
 70
     0
  9
$DIMBLK
  1

  9
$DIMASO
 70
     1
  9
$DIMSHO
 70
     1
  9
$DIMPOST
  1

  9
$DIMAPOST
  1

  9
$DIMALT
 70
     0
  9
$DIMALTD
 70
     2
  9
$DIMALTF
 40
25.4
  9
$DIMLFAC
 40
1.0
  9
$DIMTOFL
 70
     0
  9
$DIMTVP
 40
0.0
  9
$DIMTIX
 70
     0
  9
$DIMSOXD
 70
     0
  9
$DIMSAH
 70
     0
  9
$DIMBLK1
  1

  9
$DIMBLK2
  1

  9
$DIMSTYLE
  2
Standard
  9
$DIMCLRD
 70
     0
  9
$DIMCLRE
 70
     0
  9
$DIMCLRT
 70
     0
  9
$DIMTFAC
 40
1.0
  9
$DIMGAP
 40
0.09
  9
$DIMJUST
 70
     0
  9
$DIMSD1
 70
     0
  9
$DIMSD2
 70
     0
  9
$DIMTOLJ
 70
     1
  9
$DIMTZIN
 70
     0
  9
$DIMALTZ
 70
     0
  9
$DIMALTTZ
 70
     0
  9
$DIMUPT
 70
     0
  9
$DIMDEC
 70
     4
  9
$DIMTDEC
 70
     4
  9
$DIMALTU
 70
     2
  9
$DIMALTTD
 70
     2
  9
$DIMTXSTY
  7
Standard
  9
$DIMAUNIT
 70
     0
  9
$DIMADEC
 70
     0
  9
$DIMALTRND
 40
0.0
  9
$DIMAZIN
 70
     0
  9
$DIMDSEP
 70
    46
  9
$DIMATFIT
 70
     3
  9
$DIMFRAC
 70
     0
  9
$DIMLDRBLK
  1

  9
$DIMLUNIT
 70
     2
  9
$DIMLWD
 70
    -2
  9
$DIMLWE
 70
    -2
  9
$DIMTMOVE
 70
     0
  9
$DIMFXL
 40
1.0
  9
$DIMFXLON
 70
     0
  9
$DIMJOGANG
 40
0.7853981633974483
  9
$DIMTFILL
 70
     0
  9
$DIMTFILLCLR
 70
     0
  9
$DIMARCSYM
 70
     0
  9
$DIMLTYPE
  6

  9
$DIMLTEX1
  6

  9
$DIMLTEX2
  6

  9
$DIMTXTDIRECTION
 70
     0
  9
$LUNITS
 70
     2
  9
$LUPREC
 70
     4
  9
$SKETCHINC
 40
0.1
  9
$FILLETRAD
 40
0.5
  9
$AUNITS
 70
     0
  9
$AUPREC
 70
     0
  9
$MENU
  1
.
  9
$ELEVATION
 40
0.0
  9
$PELEVATION
 40
0.0
  9
$THICKNESS
 40
0.0
  9
$LIMCHECK
 70
     0
  9
$CHAMFERA
 40
0.5
  9
$CHAMFERB
 40
0.5
  9
$CHAMFERC
 40
1.0
  9
$CHAMFERD
 40
0.0
  9
$SKPOLY
 70
     0
  9
$TDCREATE
 40
2459142.821134248
  9
$TDUCREATE
 40
2459143.154467592
  9
$TDUPDATE
 40
2459142.821134248
  9
$TDUUPDATE
 40
2459143.154467592
  9
$TDINDWG
 40
0.0000000116
  9
$TDUSRTIMER
 40
0.0000000116
  9
$USRTIMER
 70
     1
  9
$ANGBASE
 50
0.0
  9
$ANGDIR
 70
     0
  9
$PDMODE
 70
     0
  9
$PDSIZE
 40
0.0
  9
$PLINEWID
 40
0.0
  9
$SPLFRAME
 70
     0
  9
$SPLINETYPE
 70
     6
  9
$SPLINESEGS
 70
     8
  9
$HANDSEED
  5
A8
  9
$SURFTAB1
 70
     6
  9
$SURFTAB2
 70
     6
  9
$SURFTYPE
 70
     6
  9
$SURFU
 70
     6
  9
$SURFV
 70
     6
  9
$UCSBASE
  2

  9
$UCSNAME
  2

  9
$UCSORG
 10
0.0
 20
0.0
 30
0.0
  9
$UCSXDIR
 10
1.0
 20
0.0
 30
0.0
  9
$UCSYDIR
 10
0.0
 20
1.0
 30
0.0
  9
$UCSORTHOREF
  2

  9
$UCSORTHOVIEW
 70
     0
  9
$UCSORGTOP
 10
0.0
 20
0.0
 30
0.0
  9
$UCSORGBOTTOM
 10
0.0
 20
0.0
 30
0.0
  9
$UCSORGLEFT
 10
0.0
 20
0.0
 30
0.0
  9
$UCSORGRIGHT
 10
0.0
 20
0.0
 30
0.0
  9
$UCSORGFRONT
 10
0.0
 20
0.0
 30
0.0
  9
$UCSORGBACK
 10
0.0
 20
0.0
 30
0.0
  9
$PUCSBASE
  2

  9
$PUCSNAME
  2

  9
$PUCSORG
 10
0.0
 20
0.0
 30
0.0
  9
$PUCSXDIR
 10
1.0
 20
0.0
 30
0.0
  9
$PUCSYDIR
 10
0.0
 20
1.0
 30
0.0
  9
$PUCSORTHOREF
  2

  9
$PUCSORTHOVIEW
 70
     0
  9
$PUCSORGTOP
 10
0.0
 20
0.0
 30
0.0
  9
$PUCSORGBOTTOM
 10
0.0
 20
0.0
 30
0.0
  9
$PUCSORGLEFT
 10
0.0
 20
0.0
 30
0.0
  9
$PUCSORGRIGHT
 10
0.0
 20
0.0
 30
0.0
  9
$PUCSORGFRONT
 10
0.0
 20
0.0
 30
0.0
  9
$PUCSORGBACK
 10
0.0
 20
0.0
 30
0.0
  9
$USERI1
 70
     0
  9
$USERI2
 70
     0
  9
$USERI3
 70
     0
  9
$USERI4
 70
     0
  9
$USERI5
 70
     0
  9
$USERR1
 40
0.0
  9
$USERR2
 40
0.0
  9
$USERR3
 40
0.0
  9
$USERR4
 40
0.0
  9
$USERR5
 40
0.0
  9
$WORLDVIEW
 70
     1
  9
$SHADEDGE
 70
     3
  9
$SHADEDIF
 70
    70
  9
$TILEMODE
 70
     1
  9
$MAXACTVP
 70
    64
  9
$PINSBASE
 10
0.0
 20
0.0
 30
0.0
  9
$PLIMCHECK
 70
     0
  9
$PEXTMIN
 10
1.000000000000000E+20
 20
1.000000000000000E+20
 30
1.000000000000000E+20
  9
$PEXTMAX
 10
-1.000000000000000E+20
 20
-1.000000000000000E+20
 30
-1.000000000000000E+20
  9
$PLIMMIN
 10
0.0
 20
0.0
  9
$PLIMMAX
 10
12.0
 20
9.0
  9
$UNITMODE
 70
     0
  9
$VISRETAIN
 70
     1
  9
$PLINEGEN
 70
     0
  9
$PSLTSCALE
 70
     1
  9
$TREEDEPTH
 70
  3020
  9
$CMLSTYLE
  2
Standard
  9
$CMLJUST
 70
     0
  9
$CMLSCALE
 40
1.0
  9
$PROXYGRAPHICS
 70
     1
  9
$MEASUREMENT
 70
     0
  9
$CELWEIGHT
370
    -1
  9
$ENDCAPS
280
     0
  9
$JOINSTYLE
280
     0
  9
$LWDISPLAY
290
     1
  9
$INSUNITS
 70
     1
  9
$HYPERLINKBASE
  1

  9
$STYLESHEET
  1

  9
$XEDIT
290
     1
  9
$CEPSNTYPE
380
     0
  9
$PSTYLEMODE
290
     1
  9
$FINGERPRINTGUID
  2
{C1BCE7BE-AB7D-A5B2-6013-3ED2FD1B5A0C}
  9
$VERSIONGUID
  2
{FAEB1C32-E019-11D5-929B-00C0DF256EC4}
  9
$EXTNAMES
290
     1
  9
$PSVPSCALE
 40
0.0
  9
$OLESTARTUP
290
     0
  9
$SORTENTS
280
   127
  9
$INDEXCTL
280
     0
  9
$HIDETEXT
280
     1
  9
$XCLIPFRAME
280
     2
  9
$HALOGAP
280
     0
  9
$OBSCOLOR
 70
   257
  9
$OBSLTYPE
280
     0
  9
$INTERSECTIONDISPLAY
280
     0
  9
$INTERSECTIONCOLOR
 70
   257
  9
$DIMASSOC
280
     2
  9
$PROJECTNAME
  1

  9
$CAMERADISPLAY
290
     0
  9
$LENSLENGTH
 40
50.0
  9
$CAMERAHEIGHT
 40
0.0
  9
$STEPSPERSEC
 40
2.0
  9
$STEPSIZE
 40
6.0
  9
$3DDWFPREC
 40
2.0
  9
$PSOLWIDTH
 40
0.25
  9
$PSOLHEIGHT
 40
4.0
  9
$LOFTANG1
 40
1.570796326794897
  9
$LOFTANG2
 40
1.570796326794897
  9
$LOFTMAG1
 40
0.0
  9
$LOFTMAG2
 40
0.0
  9
$LOFTPARAM
 70
     7
  9
$LOFTNORMALS
280
     1
  9
$LATITUDE
 40
37.795
  9
$LONGITUDE
 40
-122.394
  9
$NORTHDIRECTION
 40
0.0
  9
$TIMEZONE
 70
 -8000
  9
$LIGHTGLYPHDISPLAY
280
     1
  9
$TILEMODELIGHTSYNCH
280
     1
  9
$CMATERIAL
347
3C
  9
$SOLIDHIST
280
     1
  9
$SHOWHIST
280
     1
  9
$DWFFRAME
280
     2
  9
$DGNFRAME
280
     2
  9
$REALWORLDSCALE
290
     1
  9
$INTERFERECOLOR
 62
   256
  9
$CSHADOW
280
     0
  9
$SHADOWPLANELOCATION
 40
0.0
  0
ENDSEC
  0
SECTION
  2
CLASSES
  0
CLASS
  1
ACDBDICTIONARYWDFLT
  2
AcDbDictionaryWithDefault
  3
ObjectDBX Classes
 90
        0
 91
        4
280
     0
281
     0
  0
CLASS
  1
VISUALSTYLE
  2
AcDbVisualStyle
  3
ObjectDBX Classes
 90
     4095
 91
        4
280
     0
281
     0
  0
CLASS
  1
MATERIAL
  2
AcDbMaterial
  3
ObjectDBX Classes
 90
     1153
 91
        4
280
     0
281
     0
  0
CLASS
  1
SUN
  2
AcDbSun
  3
SCENEOE
 90
     1024
 91
        4
280
     0
281
     0
  0
ENDSEC
  0
SECTION
  2
TABLES
  0
TABLE
  2
VPORT
  5
8
330
0
100
AcDbSymbolTable
 70
     1
  0
VPORT
  5
29
330
8
100
AcDbSymbolTableRecord
100
AcDbViewportTableRecord
  2
*Active
 70
     0
 10
0.0
 20
0.0
 11
1.0
 21
1.0
 12
0.0
 22
0.0
 13
0.0
 23
0.0
 14
0.5
 24
0.5
 15
0.5
 25
0.5
 16
0.0
 26
0.0
 36
1.0
 17
10.0
 27
-6.0
 37
0.0
 40
12.0
 41
1.666666666666667
 42
50.0
 43
0.0
 44
0.0
 50
0.0
 51
0.0
 71
     0
 72
   100
 73
     1
 74
     3
 75
     0
 76
     0
 77
     0
 78
     0
281
     0
 65
     1
110
0.0
120
0.0
130
0.0
111
1.0
121
0.0
131
0.0
112
0.0
122
1.0
132
0.0
 79
     0
146
0.0
 60
     3
 61
     5
292
     1
282
     1
141
0.0
142
0.0
 63
   250
361
3F
  0
ENDTAB
  0
TABLE
  2
LTYPE
  5
5
330
0
100
AcDbSymbolTable
 70
     1
  0
LTYPE
  5
14
330
5
100
AcDbSymbolTableRecord
100
AcDbLinetypeTableRecord
  2
ByBlock
 70
     0
  3

 72
    65
 73
     0
 40
0.0
  0
LTYPE
  5
15
330
5
100
AcDbSymbolTableRecord
100
AcDbLinetypeTableRecord
  2
ByLayer
 70
     0
  3

 72
    65
 73
     0
 40
0.0
  0
LTYPE
  5
16
330
5
100
AcDbSymbolTableRecord
100
AcDbLinetypeTableRecord
  2
Continuous
 70
     0
  3
Solid line
 72
    65
 73
     0
 40
0.0
  0
ENDTAB
  0
TABLE
  2
LAYER
  5
2
330
0
100
AcDbSymbolTable
 70
     2
  0
LAYER
  5
10
330
2
100
AcDbSymbolTableRecord
100
AcDbLayerTableRecord
  2
0
 70
     0
 62
     7
  6
Continuous
370
    -3
390
F
347
3E
  0
LAYER
  5
40
330
2
100
AcDbSymbolTableRecord
100
AcDbLayerTableRecord
  2
Layer 2
 70
     4
 62
     7
  6
Continuous
370
    -3
390
F
347
3E
  0
ENDTAB
  0
TABLE
  2
STYLE
  5
3
330
0
100
AcDbSymbolTable
 70
     1
  0
STYLE
  5
11
330
3
100
AcDbSymbolTableRecord
100
AcDbTextStyleTableRecord
  2
Standard
 70
     0
 40
0.0
 41
1.0
 50
0.0
 71
     0
 42
0.2
  3
txt
  4

  0
ENDTAB
  0
TABLE
  2
VIEW
  5
6
330
0
100
AcDbSymbolTable
 70
     0
  0
ENDTAB
  0
TABLE
  2
UCS
  5
7
330
0
100
AcDbSymbolTable
 70
     0
  0
ENDTAB
  0
TABLE
  2
APPID
  5
9
330
0
100
AcDbSymbolTable
 70
     1
  0
APPID
  5
12
330
9
100
AcDbSymbolTableRecord
100
AcDbRegAppTableRecord
  2
ACAD
 70
     0
  0
ENDTAB
  0
TABLE
  2
DIMSTYLE
  5
A
330
0
100
AcDbSymbolTable
 70
     1
100
AcDbDimStyleTable
  0
DIMSTYLE
105
27
330
A
100
AcDbSymbolTableRecord
100
AcDbDimStyleTableRecord
  2
Standard
 70
     0
178
     0
340
11
  0
ENDTAB
  0
TABLE
  2
BLOCK_RECORD
  5
1
330
0
100
AcDbSymbolTable
 70
     2
  0
BLOCK_RECORD
  5
1F
330
1
100
AcDbSymbolTableRecord
100
AcDbBlockTableRecord
  2
*Model_Space
340
22
 70
     0
280
     1
281
     0
  0
BLOCK_RECORD
  5
1B
330
1
100
AcDbSymbolTableRecord
100
AcDbBlockTableRecord
  2
*Paper_Space
340
1E
 70
     0
280
     1
281
     0
  0
BLOCK_RECORD
  5
23
330
1
100
AcDbSymbolTableRecord
100
AcDbBlockTableRecord
  2
*Paper_Space0
340
26
 70
     0
280
     1
281
     0
  0
BLOCK_RECORD
  5
41
330
1
100
AcDbSymbolTableRecord
100
AcDbBlockTableRecord
  2
block 2
340
0
102
{BLKREFS
331
42
102
}
 70
     0
280
     1
281
     0
  0
ENDTAB
  0
ENDSEC
  0
SECTION
  2
BLOCKS
  0
BLOCK
  5
20
330
1F
100
AcDbEntity
  8
0
100
AcDbBlockBegin
  2
*Model_Space
 70
     0
 10
0.0
 20
0.0
 30
0.0
  3
*Model_Space
  1

  0
ENDBLK
  5
21
330
1F
100
AcDbEntity
  8
0
100
AcDbBlockEnd
  0
BLOCK
  5
1C
330
1B
100
AcDbEntity
 67
     1
  8
0
100
AcDbBlockBegin
  2
*Paper_Space
 70
     0
 10
0.0
 20
0.0
 30
0.0
  3
*Paper_Space
  1

  0
ENDBLK
  5
1D
330
1B
100
AcDbEntity
 67
     1
  8
0
100
AcDbBlockEnd
  0
BLOCK
  5
24
330
23
100
AcDbEntity
  8
0
100
AcDbBlockBegin
  2
*Paper_Space0
 70
     0
 10
0.0
 20
0.0
 30
0.0
  3
*Paper_Space0
  1

  0
ENDBLK
  5
25
330
23
100
AcDbEntity
  8
0
100
AcDbBlockEnd
  0
BLOCK
  5
43
330
41
100
AcDbEntity
  8
0
100
AcDbBlockBegin
  2
block 2
 70
     0
 10
0.0
 20
0.0
 30
0.0
  3
block 2
  1

  0
SPLINE
  5
45
330
41
100
AcDbEntity
  8
Layer 2
 62
     7
420
 16777215
370
     9
100
AcDbSpline
210
0.0
220
0.0
230
1.0
 70
    11
 71
     3
 72
   161
 73
   157
 74
     0
 42
0.0000000001
 43
0.0000000001
 12
1.0
 22
0.0
 32
0.0
 13
1.0
 23
0.0
 33
0.0
 40
0.0
 40
0.0
 40
0.0
 40
0.0
 40
1.0
 40
1.0
 40
1.0
 40
2.0
 40
2.0
 40
2.0
 40
3.0
 40
3.0
 40
3.0
 40
4.0
 40
4.0
 40
4.0
 40
5.0
 40
5.0
 40
5.0
 40
6.0
 40
6.0
 40
6.0
 40
7.0
 40
7.0
 40
7.0
 40
8.0
 40
8.0
 40
8.0
 40
9.0
 40
9.0
 40
9.0
 40
10.0
 40
10.0
 40
10.0
 40
11.0
 40
11.0
 40
11.0
 40
12.0
 40
12.0
 40
12.0
 40
13.0
 40
13.0
 40
13.0
 40
14.0
 40
14.0
 40
14.0
 40
15.0
 40
15.0
 40
15.0
 40
16.0
 40
16.0
 40
16.0
 40
17.0
 40
17.0
 40
17.0
 40
18.0
 40
18.0
 40
18.0
 40
19.0
 40
19.0
 40
19.0
 40
20.0
 40
20.0
 40
20.0
 40
21.0
 40
21.0
 40
21.0
 40
22.0
 40
22.0
 40
22.0
 40
23.0
 40
23.0
 40
23.0
 40
24.0
 40
24.0
 40
24.0
 40
25.0
 40
25.0
 40
25.0
 40
26.0
 40
26.0
 40
26.0
 40
27.0
 40
27.0
 40
27.0
 40
28.0
 40
28.0
 40
28.0
 40
29.0
 40
29.0
 40
29.0
 40
30.0
 40
30.0
 40
30.0
 40
31.0
 40
31.0
 40
31.0
 40
32.0
 40
32.0
 40
32.0
 40
33.0
 40
33.0
 40
33.0
 40
34.0
 40
34.0
 40
34.0
 40
35.0
 40
35.0
 40
35.0
 40
36.0
 40
36.0
 40
36.0
 40
37.0
 40
37.0
 40
37.0
 40
38.0
 40
38.0
 40
38.0
 40
39.0
 40
39.0
 40
39.0
 40
40.0
 40
40.0
 40
40.0
 40
41.0
 40
41.0
 40
41.0
 40
42.0
 40
42.0
 40
42.0
 40
43.0
 40
43.0
 40
43.0
 40
44.0
 40
44.0
 40
44.0
 40
45.0
 40
45.0
 40
45.0
 40
46.0
 40
46.0
 40
46.0
 40
47.0
 40
47.0
 40
47.0
 40
48.0
 40
48.0
 40
48.0
 40
49.0
 40
49.0
 40
49.0
 40
50.0
 40
50.0
 40
50.0
 40
51.0
 40
51.0
 40
51.0
 40
52.0
 40
52.0
 40
52.0
 40
52.0
 10
18.39257709646555
 20
-5.146826007785143
 30
0.0
 10
18.3863528667068
 20
-5.123600440872994
 30
0.0
 10
18.36248939198541
 20
-5.109792009033931
 30
0.0
 10
18.33924867686667
 20
-5.116053267742043
 30
0.0
 10
18.31602142682055
 20
-5.122276655933774
 30
0.0
 10
18.30224665766264
 20
-5.146156120428738
 30
0.0
 10
18.30847425368959
 20
-5.169381687340874
 30
0.0
 10
18.32647032307321
 20
-5.236491608633805
 30
0.0
 10
18.32063658041665
 20
-5.288752921237763
 30
0.0
 10
18.29062798323735
 20
-5.329144772441307
 30
0.0
 10
18.19286650755374
 20
-5.460755757232101
 30
0.0
 10
17.85323025158833
 20
-5.471294701157047
 30
0.0
 10
17.52477337205806
 20
-5.481488602599433
 30
0.0
 10
17.3806802650686
 20
-5.485959006666286
 30
0.0
 10
17.23167240661999
 20
-5.490582575932737
 30
0.0
 10
17.10043507759082
 20
-5.505559944377384
 30
0.0
 10
16.92886144078208
 20
-5.525133951943505
 30
0.0
 10
16.80081196766499
 20
-5.591999818797527
 30
0.0
 10
16.71984648677931
 20
-5.704290949265467
 30
0.0
 10
16.67428741400764
 20
-5.767482534463637
 30
0.0
 10
16.64958405538957
 20
-5.837104533343083
 30
0.0
 10
16.63687975949473
 20
-5.902250237186434
 30
0.0
 10
16.61062455127222
 20
-5.883828334885303
 30
0.0
 10
16.5793064757932
 20
-5.874303479232291
 30
0.0
 10
16.54677486065611
 20
-5.875342814515155
 30
0.0
 10
16.50678022909096
 20
-5.876673331990635
 30
0.0
 10
16.4702915657757
 20
-5.894104709896687
 30
0.0
 10
16.44406160456404
 20
-5.921610486726763
 30
0.0
 10
16.41311045231042
 20
-5.893398635157963
 30
0.0
 10
16.37101022003473
 20
-5.876858476737374
 30
0.0
 10
16.32592747420222
 20
-5.878436414919861
 30
0.0
 10
16.2788821940543
 20
-5.880004254297975
 30
0.0
 10
16.23619623112513
 20
-5.901054370435872
 30
0.0
 10
16.20697029128446
 20
-5.93372484413309
 30
0.0
 10
16.16923105936154
 20
-5.893072107150058
 30
0.0
 10
16.11421782256735
 20
-5.86895027135026
 30
0.0
 10
16.05543099920765
 20
-5.870910280964671
 30
0.0
 10
15.99751772242583
 20
-5.872836627897855
 30
0.0
 10
15.94533383398862
 20
-5.899112033729112
 30
0.0
 10
15.91044583116556
 20
-5.940748562570989
 30
0.0
 10
15.87113960143168
 20
-5.892882754568164
 30
0.0
 10
15.80986342279529
 20
-5.863633250850575
 30
0.0
 10
15.74413198829848
 20
-5.865754841334857
 30
0.0
 10
15.69003437643374
 20
-5.867554111646402
 30
0.0
 10
15.63976926082639
 20
-5.890674482679716
 30
0.0
 10
15.60346910852597
 20
-5.927540168024797
 30
0.0
 10
15.56493207105806
 20
-5.880762506192607
 30
0.0
 10
15.5047903247789
 20
-5.852216552512636
 30
0.0
 10
15.43975402464957
 20
-5.854285965841023
 30
0.0
 10
15.38723855880236
 20
-5.856033900563703
 30
0.0
 10
15.35445110728779
 20
-5.873376072364509
 30
0.0
 10
15.33367954983709
 20
-5.896968562502011
 30
0.0
 10
15.30094090921041
 20
-5.865579795392478
 30
0.0
 10
15.25721476943138
 20
-5.85557945436714
 30
0.0
 10
15.21844377632889
 20
-5.854285965841023
 30
0.0
 10
15.15341252560168
 20
-5.852246007358707
 30
0.0
 10
15.09326741305444
 20
-5.880774288131028
 30
0.0
 10
15.05473205872055
 20
-5.927539326457754
 30
0.0
 10
15.01843527268819
 20
-5.890673641112685
 30
0.0
 10
14.96817015708098
 20
-5.867554111646402
 30
0.0
 10
14.91406412954582
 20
-5.865754841334857
 30
0.0
 10
14.84841180235
 20
-5.863713199718467
 30
0.0
 10
14.78710869356862
 20
-5.892928199187824
 30
0.0
 10
14.74777721682375
 20
-5.940770443313795
 30
0.0
 10
14.7128925802689
 20
-5.899120449399422
 30
0.0
 10
14.66069354362513
 20
-5.872836627897855
 30
0.0
 10
14.60277185117292
 20
-5.870910280964671
 30
0.0
 10
14.543811665005
 20
-5.868850124873612
 30
0.0
 10
14.48886238730514
 20
-5.893005623354636
 30
0.0
 10
14.45118374820832
 20
-5.933681082647518
 30
0.0
 10
14.42195780836765
 20
-5.901038380662284
 30
0.0
 10
14.37928867677917
 20
-5.880003412730944
 30
0.0
 10
14.33225854483776
 20
-5.878436414919861
 30
0.0
 10
14.28742658598041
 20
-5.876950207543713
 30
0.0
 10
14.24526407774445
 20
-5.893492890665394
 30
0.0
 10
14.21422540251958
 20
-5.921705583801225
 30
0.0
 10
14.18799207503985
 20
-5.894145946681179
 30
0.0
 10
14.15146806590931
 20
-5.876675015124698
 30
0.0
 10
14.11142714815749
 20
-5.875342814515155
 30
0.0
 10
14.07885766250388
 20
-5.874329567810238
 30
0.0
 10
14.04756567560291
 20
-5.883843483091848
 30
0.0
 10
14.02131804148376
 20
-5.902254445021577
 30
0.0
 10
14.00861458715584
 20
-5.837107899611194
 30
0.0
 10
13.98391122853791
 20
-5.767483376030668
 30
0.0
 10
13.93835047263208
 20
-5.704290949265467
 30
0.0
 10
13.85739004114854
 20
-5.591999818797527
 30
0.0
 10
13.7293405680315
 20
-5.525133951943505
 30
0.0
 10
13.55776188182062
 20
-5.505559944377384
 30
0.0
 10
13.42652371122439
 20
-5.490582575932737
 30
0.0
 10
13.27751753590989
 20
-5.485959006666286
 30
0.0
 10
13.13342274578624
 20
-5.481488602599433
 30
0.0
 10
12.80496754939011
 20
-5.471294701157047
 30
0.0
 10
12.46532961029056
 20
-5.460755757232101
 30
0.0
 10
12.36756897617402
 20
-5.329144772441307
 30
0.0
 10
12.33756711153102
 20
-5.288752921237763
 30
0.0
 10
12.33173084417336
 20
-5.236491608633805
 30
0.0
 10
12.34972691355698
 20
-5.169381687340874
 30
0.0
 10
12.35595619271791
 20
-5.146156120428738
 30
0.0
 10
12.34217974042602
 20
-5.12228170533596
 30
0.0
 10
12.3189541735139
 20
-5.116053267742043
 30
0.0
 10
12.29570167645675
 20
-5.109797900003147
 30
0.0
 10
12.27184914210678
 20
-5.123600440872994
 30
0.0
 10
12.26562575391507
 20
-5.146826007785143
 30
0.0
 10
12.24063542093962
 20
-5.239994210615401
 30
0.0
 10
12.25141926087048
 20
-5.318807804603706
 30
0.0
 10
12.29766841860742
 20
-5.381071141367063
 30
0.0
 10
12.33487073076478
 20
-5.431155320062708
 30
0.0
 10
12.39253406213851
 20
-5.466987561094129
 30
0.0
 10
12.46485244178418
 20
-5.493017229352429
 30
0.0
 10
12.52637688269462
 20
-5.84621870428513
 30
0.0
 10
13.07780526386402
 20
-5.881180765006838
 30
0.0
 10
13.2141753102132
 20
-5.884399758899121
 30
0.0
 10
13.24768566780707
 20
-5.969478819430681
 30
0.0
 10
13.34657820957985
 20
-6.269276975298807
 30
0.0
 10
13.2598033914815
 20
-6.662413330537371
 30
0.0
 10
13.2413663409738
 20
-6.745930442660033
 30
0.0
 10
13.16532739348562
 20
-7.183647128213756
 30
0.0
 10
13.47960807638436
 20
-7.600753837186605
 30
0.0
 10
13.62016323557701
 20
-7.787293060501522
 30
0.0
 10
13.81822519467571
 20
-7.939455953748064
 30
0.0
 10
14.0682926300011
 20
-8.053001860658721
 30
0.0
 10
14.36065974898848
 20
-8.185754851910108
 30
0.0
 10
14.72718575471764
 20
-8.266636176092737
 30
0.0
 10
15.1576843198493
 20
-8.293401373935845
 30
0.0
 10
15.15858311343805
 20
-8.293454392658784
 30
0.0
 10
15.1594819070268
 20
-8.293486372205937
 30
0.0
 10
15.16038406688376
 20
-8.293486372205937
 30
0.0
 10
15.16038406688376
 20
-8.293486372205937
 30
0.0
 10
15.4978120509607
 20
-8.293486372205937
 30
0.0
 10
15.4978120509607
 20
-8.293486372205937
 30
0.0
 10
15.49871421081762
 20
-8.293486372205937
 30
0.0
 10
15.49961300440625
 20
-8.293454392658784
 30
0.0
 10
15.50051179799501
 20
-8.293401373935845
 30
0.0
 10
15.93101036312681
 20
-8.266636176092737
 30
0.0
 10
16.29753636885597
 20
-8.185754851910108
 30
0.0
 10
16.58991022037958
 20
-8.053001860658721
 30
0.0
 10
16.83997681413792
 20
-7.939455953748064
 30
0.0
 10
17.03803793166958
 20
-7.787293060501522
 30
0.0
 10
17.17859309086223
 20
-7.600753837186605
 30
0.0
 10
17.49287461532791
 20
-7.183647128213756
 30
0.0
 10
17.41683566783973
 20
-6.745930442660033
 30
0.0
 10
17.39839861733208
 20
-6.662413330537371
 30
0.0
 10
17.31190067478681
 20
-6.270551949350242
 30
0.0
 10
17.41075113820805
 20
-5.969563817700772
 30
0.0
 10
17.44411758783973
 20
-5.88433579980478
 30
0.0
 10
17.50196858866126
 20
-5.882847067727552
 30
0.0
 10
17.63622714333057
 20
-5.875459792332422
 30
0.0
 10
17.77586667759374
 20
-5.84006348302287
 30
0.0
 10
18.02041595789918
 20
-5.778093853153223
 30
0.0
 10
18.16435421655499
 20
-5.658269014626815
 30
0.0
 10
18.19335293329749
 20
-5.493016387785397
 30
0.0
 10
18.26567047137612
 20
-5.466985877960067
 30
0.0
 10
18.32333296118291
 20
-5.431153636928658
 30
0.0
 10
18.36053359020611
 20
-5.381071141367063
 30
0.0
 10
18.40678274794305
 20
-5.318807804603706
 30
0.0
 10
18.4175615384718
 20
-5.239994210615401
 30
0.0
 10
18.39257709646555
 20
-5.146826007785143
 30
0.0
  0
SPLINE
  5
46
330
41
100
AcDbEntity
  8
Layer 2
 62
     7
420
 16777215
370
     9
100
AcDbSpline
210
0.0
220
0.0
230
1.0
 70
    11
 71
     3
 72
    29
 73
    25
 74
     0
 42
0.0000000001
 43
0.0000000001
 12
1.0
 22
0.0
 32
0.0
 13
1.0
 23
0.0
 33
0.0
 40
0.0
 40
0.0
 40
0.0
 40
0.0
 40
1.0
 40
1.0
 40
1.0
 40
2.0
 40
2.0
 40
2.0
 40
3.0
 40
3.0
 40
3.0
 40
4.0
 40
4.0
 40
4.0
 40
5.0
 40
5.0
 40
5.0
 40
6.0
 40
6.0
 40
6.0
 40
7.0
 40
7.0
 40
7.0
 40
8.0
 40
8.0
 40
8.0
 40
8.0
 10
16.72087824795888
 20
-6.133525480717152
 30
0.0
 10
16.72042043549431
 20
-6.131325624499014
 30
0.0
 10
16.6767330077986
 20
-5.912429831989294
 30
0.0
 10
16.7908309826814
 20
-5.754733635516181
 30
0.0
 10
16.85687884638165
 20
-5.663452225968651
 30
0.0
 10
16.9643637875375
 20
-5.608725121964855
 30
0.0
 10
17.11030834199444
 20
-5.592073876696228
 30
0.0
 10
17.12614495037749
 20
-5.59026787384841
 30
0.0
 10
17.14228620602555
 20
-5.588618402468328
 30
0.0
 10
17.15867488238056
 20
-5.58710105711206
 30
0.0
 10
17.10193979944168
 20
-5.824465879676634
 30
0.0
 10
16.94708136699584
 20
-6.291900821784035
 30
0.0
 10
16.7249026214996
 20
-6.357961308989716
 30
0.0
 10
16.71918501509319
 20
-6.263502142334421
 30
0.0
 10
16.70657665783986
 20
-6.20021630162882
 30
0.0
 10
16.70558697501181
 20
-6.195357935160801
 30
0.0
 10
16.70506688658694
 20
-6.192815561161195
 30
0.0
 10
16.70424383403098
 20
-6.190419619824903
 30
0.0
 10
16.70332315969932
 20
-6.188085112881859
 30
0.0
 10
16.7026650542814
 20
-6.185116064397688
 30
0.0
 10
16.70185378366389
 20
-6.182216865977074
 30
0.0
 10
16.70102063230348
 20
-6.179318509123479
 30
0.0
 10
16.71616547258721
 20
-6.169961125309555
 30
0.0
 10
16.72469559601
 20
-6.151951590853438
 30
0.0
 10
16.72087824795888
 20
-6.133525480717152
 30
0.0
  0
SPLINE
  5
47
330
41
100
AcDbEntity
  8
Layer 2
 62
     7
420
 16777215
370
     9
100
AcDbSpline
210
0.0
220
0.0
230
1.0
 70
    11
 71
     3
 72
    29
 73
    25
 74
     0
 42
0.0000000001
 43
0.0000000001
 12
1.0
 22
0.0
 32
0.0
 13
1.0
 23
0.0
 33
0.0
 40
0.0
 40
0.0
 40
0.0
 40
0.0
 40
1.0
 40
1.0
 40
1.0
 40
2.0
 40
2.0
 40
2.0
 40
3.0
 40
3.0
 40
3.0
 40
4.0
 40
4.0
 40
4.0
 40
5.0
 40
5.0
 40
5.0
 40
6.0
 40
6.0
 40
6.0
 40
7.0
 40
7.0
 40
7.0
 40
8.0
 40
8.0
 40
8.0
 40
8.0
 10
16.62441951803875
 20
-6.664910259917355
 30
0.0
 10
16.62315885062695
 20
-6.669702984156957
 30
0.0
 10
16.62254618982848
 20
-6.674740604402485
 30
0.0
 10
16.62303093243819
 20
-6.679962527827733
 30
0.0
 10
16.62455248562959
 20
-6.696342788512488
 30
0.0
 10
16.61959733895305
 20
-6.712351076569676
 30
0.0
 10
16.60908448360611
 20
-6.725010769411912
 30
0.0
 10
16.59857331139319
 20
-6.737671303821141
 30
0.0
 10
16.58375499911737
 20
-6.745483570566749
 30
0.0
 10
16.56735285768971
 20
-6.747014380995526
 30
0.0
 10
16.54349443237056
 20
-6.749148594985273
 30
0.0
 10
16.52032609201652
 20
-6.737251361872849
 30
0.0
 10
16.50829504974611
 20
-6.716508417701156
 30
0.0
 10
16.51900314864431
 20
-6.639443600002551
 30
0.0
 10
16.52075697433626
 20
-6.557707243716777
 30
0.0
 10
16.51812960206654
 20
-6.481913192234464
 30
0.0
 10
16.56247850144819
 20
-6.473957859093641
 30
0.0
 10
16.6035772689575
 20
-6.46553040684863
 30
0.0
 10
16.64043790490041
 20
-6.456627469231282
 30
0.0
 10
16.64017870225487
 20
-6.516908074070392
 30
0.0
 10
16.63600621291693
 20
-6.583984332682095
 30
0.0
 10
16.62453060488681
 20
-6.65272941871558
 30
0.0
 10
16.62383883678765
 20
-6.656875819475645
 30
0.0
 10
16.62395665617194
 20
-6.660933855697471
 30
0.0
 10
16.62441951803875
 20
-6.664910259917355
 30
0.0
  0
SPLINE
  5
48
330
41
100
AcDbEntity
  8
Layer 2
 62
     7
420
 16777215
370
     9
100
AcDbSpline
210
0.0
220
0.0
230
1.0
 70
    11
 71
     3
 72
    26
 73
    22
 74
     0
 42
0.0000000001
 43
0.0000000001
 12
1.0
 22
0.0
 32
0.0
 13
1.0
 23
0.0
 33
0.0
 40
0.0
 40
0.0
 40
0.0
 40
0.0
 40
1.0
 40
1.0
 40
1.0
 40
2.0
 40
2.0
 40
2.0
 40
3.0
 40
3.0
 40
3.0
 40
4.0
 40
4.0
 40
4.0
 40
5.0
 40
5.0
 40
5.0
 40
6.0
 40
6.0
 40
6.0
 40
7.0
 40
7.0
 40
7.0
 40
7.0
 10
16.63805122080139
 20
-6.367501312849273
 30
0.0
 10
16.60134206692404
 20
-6.376944536500306
 30
0.0
 10
16.55923005270986
 20
-6.385866830159355
 30
0.0
 10
16.51315930718334
 20
-6.3942867083011
 30
0.0
 10
16.50749387793293
 20
-6.32150799148965
 30
0.0
 10
16.49906137628583
 20
-6.260153547119418
 30
0.0
 10
16.49314347692626
 20
-6.222274615069434
 30
0.0
 10
16.49511611004611
 20
-6.21842276277011
 30
0.0
 10
16.49672181994055
 20
-6.214326856031877
 30
0.0
 10
16.49748596280445
 20
-6.209836254356282
 30
0.0
 10
16.50236368531417
 20
-6.181167431889839
 30
0.0
 10
16.52705694512765
 20
-6.159653612318051
 30
0.0
 10
16.55618694632694
 20
-6.158685810232782
 30
0.0
 10
16.59035625090585
 20
-6.157644791815856
 30
0.0
 10
16.61870527790057
 20
-6.184271972665934
 30
0.0
 10
16.61983634398987
 20
-6.218233410188203
 30
0.0
 10
16.62004673574751
 20
-6.224532539412697
 30
0.0
 10
16.62166422758042
 20
-6.230423508627306
 30
0.0
 10
16.62424952149862
 20
-6.235748103230283
 30
0.0
 10
16.62836478427847
 20
-6.261736534704091
 30
0.0
 10
16.63463445865694
 20
-6.308283607169869
 30
0.0
 10
16.63805122080139
 20
-6.367501312849273
 30
0.0
  0
SPLINE
  5
49
330
41
100
AcDbEntity
  8
Layer 2
 62
     7
420
 16777215
370
     9
100
AcDbSpline
210
0.0
220
0.0
230
1.0
 70
    11
 71
     3
 72
   338
 73
   334
 74
     0
 42
0.0000000001
 43
0.0000000001
 12
1.0
 22
0.0
 32
0.0
 13
1.0
 23
0.0
 33
0.0
 40
0.0
 40
0.0
 40
0.0
 40
0.0
 40
1.0
 40
1.0
 40
1.0
 40
2.0
 40
2.0
 40
2.0
 40
3.0
 40
3.0
 40
3.0
 40
4.0
 40
4.0
 40
4.0
 40
5.0
 40
5.0
 40
5.0
 40
6.0
 40
6.0
 40
6.0
 40
7.0
 40
7.0
 40
7.0
 40
8.0
 40
8.0
 40
8.0
 40
9.0
 40
9.0
 40
9.0
 40
10.0
 40
10.0
 40
10.0
 40
11.0
 40
11.0
 40
11.0
 40
12.0
 40
12.0
 40
12.0
 40
13.0
 40
13.0
 40
13.0
 40
14.0
 40
14.0
 40
14.0
 40
15.0
 40
15.0
 40
15.0
 40
16.0
 40
16.0
 40
16.0
 40
17.0
 40
17.0
 40
17.0
 40
18.0
 40
18.0
 40
18.0
 40
19.0
 40
19.0
 40
19.0
 40
20.0
 40
20.0
 40
20.0
 40
21.0
 40
21.0
 40
21.0
 40
22.0
 40
22.0
 40
22.0
 40
23.0
 40
23.0
 40
23.0
 40
24.0
 40
24.0
 40
24.0
 40
25.0
 40
25.0
 40
25.0
 40
26.0
 40
26.0
 40
26.0
 40
27.0
 40
27.0
 40
27.0
 40
28.0
 40
28.0
 40
28.0
 40
29.0
 40
29.0
 40
29.0
 40
30.0
 40
30.0
 40
30.0
 40
31.0
 40
31.0
 40
31.0
 40
32.0
 40
32.0
 40
32.0
 40
33.0
 40
33.0
 40
33.0
 40
34.0
 40
34.0
 40
34.0
 40
35.0
 40
35.0
 40
35.0
 40
36.0
 40
36.0
 40
36.0
 40
37.0
 40
37.0
 40
37.0
 40
38.0
 40
38.0
 40
38.0
 40
39.0
 40
39.0
 40
39.0
 40
40.0
 40
40.0
 40
40.0
 40
41.0
 40
41.0
 40
41.0
 40
42.0
 40
42.0
 40
42.0
 40
43.0
 40
43.0
 40
43.0
 40
44.0
 40
44.0
 40
44.0
 40
45.0
 40
45.0
 40
45.0
 40
46.0
 40
46.0
 40
46.0
 40
47.0
 40
47.0
 40
47.0
 40
48.0
 40
48.0
 40
48.0
 40
49.0
 40
49.0
 40
49.0
 40
50.0
 40
50.0
 40
50.0
 40
51.0
 40
51.0
 40
51.0
 40
52.0
 40
52.0
 40
52.0
 40
53.0
 40
53.0
 40
53.0
 40
54.0
 40
54.0
 40
54.0
 40
55.0
 40
55.0
 40
55.0
 40
56.0
 40
56.0
 40
56.0
 40
57.0
 40
57.0
 40
57.0
 40
58.0
 40
58.0
 40
58.0
 40
59.0
 40
59.0
 40
59.0
 40
60.0
 40
60.0
 40
60.0
 40
61.0
 40
61.0
 40
61.0
 40
62.0
 40
62.0
 40
62.0
 40
63.0
 40
63.0
 40
63.0
 40
64.0
 40
64.0
 40
64.0
 40
65.0
 40
65.0
 40
65.0
 40
66.0
 40
66.0
 40
66.0
 40
67.0
 40
67.0
 40
67.0
 40
68.0
 40
68.0
 40
68.0
 40
69.0
 40
69.0
 40
69.0
 40
70.0
 40
70.0
 40
70.0
 40
71.0
 40
71.0
 40
71.0
 40
72.0
 40
72.0
 40
72.0
 40
73.0
 40
73.0
 40
73.0
 40
74.0
 40
74.0
 40
74.0
 40
75.0
 40
75.0
 40
75.0
 40
76.0
 40
76.0
 40
76.0
 40
77.0
 40
77.0
 40
77.0
 40
78.0
 40
78.0
 40
78.0
 40
79.0
 40
79.0
 40
79.0
 40
80.0
 40
80.0
 40
80.0
 40
81.0
 40
81.0
 40
81.0
 40
82.0
 40
82.0
 40
82.0
 40
83.0
 40
83.0
 40
83.0
 40
84.0
 40
84.0
 40
84.0
 40
85.0
 40
85.0
 40
85.0
 40
86.0
 40
86.0
 40
86.0
 40
87.0
 40
87.0
 40
87.0
 40
88.0
 40
88.0
 40
88.0
 40
89.0
 40
89.0
 40
89.0
 40
90.0
 40
90.0
 40
90.0
 40
91.0
 40
91.0
 40
91.0
 40
92.0
 40
92.0
 40
92.0
 40
93.0
 40
93.0
 40
93.0
 40
94.0
 40
94.0
 40
94.0
 40
95.0
 40
95.0
 40
95.0
 40
96.0
 40
96.0
 40
96.0
 40
97.0
 40
97.0
 40
97.0
 40
98.0
 40
98.0
 40
98.0
 40
99.0
 40
99.0
 40
99.0
 40
100.0
 40
100.0
 40
100.0
 40
101.0
 40
101.0
 40
101.0
 40
102.0
 40
102.0
 40
102.0
 40
103.0
 40
103.0
 40
103.0
 40
104.0
 40
104.0
 40
104.0
 40
105.0
 40
105.0
 40
105.0
 40
106.0
 40
106.0
 40
106.0
 40
107.0
 40
107.0
 40
107.0
 40
108.0
 40
108.0
 40
108.0
 40
109.0
 40
109.0
 40
109.0
 40
110.0
 40
110.0
 40
110.0
 40
111.0
 40
111.0
 40
111.0
 40
111.0
 10
14.03299730873515
 20
-6.05018173140282
 30
0.0
 10
14.03999073076001
 20
-6.042742278851796
 30
0.0
 10
14.04452088608597
 20
-6.032924557872118
 30
0.0
 10
14.04488612617736
 20
-6.021915177977032
 30
0.0
 10
14.04543314474722
 20
-6.005460017826547
 30
0.0
 10
14.05235839984251
 20
-5.990206615395828
 30
0.0
 10
14.06437513547333
 20
-5.978960755165127
 30
0.0
 10
14.07639187110418
 20
-5.967724993738784
 30
0.0
 10
14.09184220022
 20
-5.961889567948194
 30
0.0
 10
14.10853047443806
 20
-5.962378518393002
 30
0.0
 10
14.13716984205833
 20
-5.96332864757062
 30
0.0
 10
14.16140108157209
 20
-5.984158273146477
 30
0.0
 10
14.16686201003404
 20
-6.012075576254548
 30
0.0
 10
14.16826826854236
 20
-6.030214712033385
 30
0.0
 10
14.18084127998041
 20
-6.046270127844309
 30
0.0
 10
14.19946179210084
 20
-6.050955131503997
 30
0.0
 10
14.22275131810723
 20
-6.056864615193287
 30
0.0
 10
14.24644563785541
 20
-6.04268505229369
 30
0.0
 10
14.25230631065695
 20
-6.019352606368657
 30
0.0
 10
14.26045941204999
 20
-5.986921979275166
 30
0.0
 10
14.29298766091902
 20
-5.964323379800867
 30
0.0
 10
14.32936692052042
 20
-5.965471277230677
 30
0.0
 10
14.3658690489082
 20
-5.96668313375484
 30
0.0
 10
14.39670574804568
 20
-5.991450451467143
 30
0.0
 10
14.4026892896336
 20
-6.02434898982968
 30
0.0
 10
14.40590070942264
 20
-6.041989917926381
 30
0.0
 10
14.41936073251097
 20
-6.055073760552028
 30
0.0
 10
14.43578812094943
 20
-6.058870069427333
 30
0.0
 10
14.43655899634958
 20
-6.059159568485888
 30
0.0
 10
14.43724234877848
 20
-6.059581193568243
 30
0.0
 10
14.43803847118945
 20
-6.059830297409335
 30
0.0
 10
14.46098800411556
 20
-6.067005497912734
 30
0.0
 10
14.48541027934529
 20
-6.054196847706079
 30
0.0
 10
14.49257874731251
 20
-6.031247314780002
 30
0.0
 10
14.50656727449612
 20
-5.98645406800612
 30
0.0
 10
14.55063845675765
 20
-5.956415174413753
 30
0.0
 10
14.5998802268557
 20
-5.957945984842518
 30
0.0
 10
14.64751123765695
 20
-5.959529813994221
 30
0.0
 10
14.68808991674124
 20
-5.989951620585543
 30
0.0
 10
14.70085480546236
 20
-6.033649988652542
 30
0.0
 10
14.70458967994429
 20
-6.04644012438449
 30
0.0
 10
14.7137307810314
 20
-6.056089531958049
 30
0.0
 10
14.72502124431473
 20
-6.061110320862958
 30
0.0
 10
14.7296077846318
 20
-6.064674357237815
 30
0.0
 10
14.73495678467862
 20
-6.067405242252284
 30
0.0
 10
14.74094537566889
 20
-6.068929320144813
 30
0.0
 10
14.74455401509638
 20
-6.069854202311515
 30
0.0
 10
14.74816770392598
 20
-6.070290134033383
 30
0.0
 10
14.75172921559973
 20
-6.070290134033383
 30
0.0
 10
14.7711593152036
 20
-6.070290134033383
 30
0.0
 10
14.78886925179682
 20
-6.057183569097914
 30
0.0
 10
14.7938866744336
 20
-6.037487534312352
 30
0.0
 10
14.80685858864417
 20
-5.986592926566169
 30
0.0
 10
14.85613907082555
 20
-5.951185676885239
 30
0.0
 10
14.91117250522848
 20
-5.952790545212704
 30
0.0
 10
14.95952894681015
 20
-5.954395413540169
 30
0.0
 10
15.00250945820001
 20
-5.984870238854417
 30
0.0
 10
15.01813399169125
 20
-6.028622467211386
 30
0.0
 10
15.02622818339207
 20
-6.051274085408623
 30
0.0
 10
15.0511604482425
 20
-6.063061914807071
 30
0.0
 10
15.07378008689251
 20
-6.054972772508361
 30
0.0
 10
15.08870611974834
 20
-6.049649019472402
 30
0.0
 10
15.09876116263068
 20
-6.036975019990678
 30
0.0
 10
15.10167635082487
 20
-6.022492492960055
 30
0.0
 10
15.11425609479918
 20
-5.973635318995106
 30
0.0
 10
15.1619258176839
 20
-5.93948200418985
 30
0.0
 10
15.21554710260931
 20
-5.941320828151839
 30
0.0
 10
15.27027925601528
 20
-5.943138612938065
 30
0.0
 10
15.29049201295763
 20
-5.963111523276703
 30
0.0
 10
15.29565250198973
 20
-6.020458425446956
 30
0.0
 10
15.29566765019624
 20
-6.020624214151995
 30
0.0
 10
15.29572487675429
 20
-6.020774013083433
 30
0.0
 10
15.29574170809499
 20
-6.020939801788472
 30
0.0
 10
15.29587635881987
 20
-6.022288833738634
 30
0.0
 10
15.29622140130237
 20
-6.023568015625238
 30
0.0
 10
15.2964789208139
 20
-6.024880860193055
 30
0.0
 10
15.2967650536043
 20
-6.026348553094547
 30
0.0
 10
15.29698554416624
 20
-6.027835602037713
 30
0.0
 10
15.29741474335194
 20
-6.029241018978913
 30
0.0
 10
15.29776820150472
 20
-6.03040238148123
 30
0.0
 10
15.2982866067957
 20
-6.031480428847494
 30
0.0
 10
15.29873263732194
 20
-6.032600554565306
 30
0.0
 10
15.29931668484126
 20
-6.034061514930524
 30
0.0
 10
15.29986370341112
 20
-6.035533415667159
 30
0.0
 10
15.30059250045972
 20
-6.036908536195242
 30
0.0
 10
15.30113446962736
 20
-6.03792935700345
 30
0.0
 10
15.30180435698374
 20
-6.038855080737171
 30
0.0
 10
15.30242375031846
 20
-6.039827090657582
 30
0.0
 10
15.30326868361721
 20
-6.041153400297895
 30
0.0
 10
15.30409678557529
 20
-6.042481393072269
 30
0.0
 10
15.305074686465
 20
-6.043702506833774
 30
0.0
 10
15.30582704739042
 20
-6.044642537207007
 30
0.0
 10
15.30668207949348
 20
-6.045479054835495
 30
0.0
 10
15.30751018145166
 20
-6.046355967681444
 30
0.0
 10
15.30853521009501
 20
-6.047438222882874
 30
0.0
 10
15.3095484568
 20
-6.048516270249138
 30
0.0
 10
15.31067783975514
 20
-6.04948743860253
 30
0.0
 10
15.31164227557221
 20
-6.050318906828807
 30
0.0
 10
15.31268076928806
 20
-6.051040971341106
 30
0.0
 10
15.31371757986987
 20
-6.051788282864335
 30
0.0
 10
15.31488567490846
 20
-6.052627325193902
 30
0.0
 10
15.31605040367887
 20
-6.053447853048813
 30
0.0
 10
15.31729592288416
 20
-6.054169075994069
 30
0.0
 10
15.31841015763277
 20
-6.054813716339569
 30
0.0
 10
15.31956815386694
 20
-6.055357368641378
 30
0.0
 10
15.3207429814418
 20
-6.05590438721131
 30
0.0
 10
15.32208612242279
 20
-6.056529671515086
 30
0.0
 10
15.32343599593987
 20
-6.057106986498107
 30
0.0
 10
15.32484477914916
 20
-6.057594253808853
 30
0.0
 10
15.32602802239431
 20
-6.058003255385756
 30
0.0
 10
15.3272314632482
 20
-6.058337357496939
 30
0.0
 10
15.32846183424694
 20
-6.058644529463132
 30
0.0
 10
15.32999180310874
 20
-6.059029125596149
 30
0.0
 10
15.33153523704292
 20
-6.059325357190927
 30
0.0
 10
15.33311738306055
 20
-6.059541639917799
 30
0.0
 10
15.33379736922138
 20
-6.059635053858225
 30
0.0
 10
15.33442349509222
 20
-6.059863960090549
 30
0.0
 10
15.33511358005737
 20
-6.059926236050816
 30
0.0
 10
15.33638434627361
 20
-6.060038164465898
 30
0.0
 10
15.33764164741751
 20
-6.060083609085546
 30
0.0
 10
15.33888716662278
 20
-6.060088658487731
 30
0.0
 10
15.33891577990193
 20
-6.060088658487731
 30
0.0
 10
15.33894102691278
 20
-6.060096232591023
 30
0.0
 10
15.33896795705778
 20
-6.060096232591023
 30
0.0
 10
15.33898478839834
 20
-6.060096232591023
 30
0.0
 10
15.33899993660485
 20
-6.060094549456961
 30
0.0
 10
15.33901508481154
 20
-6.060094549456961
 30
0.0
 10
15.33903191615208
 20
-6.060094549456961
 30
0.0
 10
15.33904874749265
 20
-6.060096232591023
 30
0.0
 10
15.33906389569918
 20
-6.060096232591023
 30
0.0
 10
15.33909082584417
 20
-6.060096232591023
 30
0.0
 10
15.33911607285513
 20
-6.060088658487731
 30
0.0
 10
15.33914300300014
 20
-6.060088658487731
 30
0.0
 10
15.34038852220556
 20
-6.060083609085546
 30
0.0
 10
15.34165087275152
 20
-6.060038164465898
 30
0.0
 10
15.34291658956555
 20
-6.059926236050816
 30
0.0
 10
15.3436066745307
 20
-6.059863960090549
 30
0.0
 10
15.3442344835357
 20
-6.059635053858225
 30
0.0
 10
15.34491278656237
 20
-6.059541639917799
 30
0.0
 10
15.34649829884807
 20
-6.059325357190927
 30
0.0
 10
15.34804004964819
 20
-6.059029125596149
 30
0.0
 10
15.34956833537596
 20
-6.058644529463132
 30
0.0
 10
15.35080038950888
 20
-6.058337357496939
 30
0.0
 10
15.35200214722861
 20
-6.058003255385756
 30
0.0
 10
15.35318707360779
 20
-6.057594253808853
 30
0.0
 10
15.35459585681709
 20
-6.057106986498107
 30
0.0
 10
15.35594741346833
 20
-6.056529671515086
 30
0.0
 10
15.35728718818111
 20
-6.05590438721131
 30
0.0
 10
15.35846369888999
 20
-6.055357368641378
 30
0.0
 10
15.35962169512416
 20
-6.054813716339569
 30
0.0
 10
15.36073424673875
 20
-6.054169075994069
 30
0.0
 10
15.36198144907818
 20
-6.053447853048813
 30
0.0
 10
15.3631461778486
 20
-6.052627325193902
 30
0.0
 10
15.36431258975305
 20
-6.051788282864335
 30
0.0
 10
15.36535108346889
 20
-6.051040971341106
 30
0.0
 10
15.36638957718487
 20
-6.050318906828807
 30
0.0
 10
15.36735401300194
 20
-6.04948743860253
 30
0.0
 10
15.36848339595708
 20
-6.048516270249138
 30
0.0
 10
15.36949664266194
 20
-6.047438222882874
 30
0.0
 10
15.37052167130527
 20
-6.046355967681444
 30
0.0
 10
15.37134977326347
 20
-6.045479054835495
 30
0.0
 10
15.3722031222325
 20
-6.044642537207007
 30
0.0
 10
15.37295716629208
 20
-6.043702506833774
 30
0.0
 10
15.37393675031571
 20
-6.042481393072269
 30
0.0
 10
15.37476148600571
 20
-6.041153400297895
 30
0.0
 10
15.37560641930458
 20
-6.039827090657582
 30
0.0
 10
15.37622581263918
 20
-6.038855080737171
 30
0.0
 10
15.37689738312959
 20
-6.03792935700345
 30
0.0
 10
15.3774376691632
 20
-6.036908536195242
 30
0.0
 10
15.37816814934584
 20
-6.035533415667159
 30
0.0
 10
15.37871685104986
 20
-6.034061514930524
 30
0.0
 10
15.37929921543514
 20
-6.032600554565306
 30
0.0
 10
15.37974692909542
 20
-6.031480428847494
 30
0.0
 10
15.38026365125223
 20
-6.03040238148123
 30
0.0
 10
15.38061879253918
 20
-6.029241018978913
 30
0.0
 10
15.38104630859084
 20
-6.027835602037713
 30
0.0
 10
15.38126511601874
 20
-6.026348553094547
 30
0.0
 10
15.38155293194318
 20
-6.024880860193055
 30
0.0
 10
15.38181045145459
 20
-6.023568015625238
 30
0.0
 10
15.38215381080305
 20
-6.022288833738634
 30
0.0
 10
15.38228846152793
 20
-6.020939801788472
 30
0.0
 10
15.3823052928686
 20
-6.020774013083433
 30
0.0
 10
15.38236588569485
 20
-6.020624214151995
 30
0.0
 10
15.38237935076737
 20
-6.020458425446956
 30
0.0
 10
15.38873486498278
 20
-5.949760903902339
 30
0.0
 10
15.39875456204987
 20
-5.942777580681915
 30
0.0
 10
15.44264901523499
 20
-5.941320828151839
 30
0.0
 10
15.49633425925486
 20
-5.939683138710178
 30
0.0
 10
15.54390299409584
 20
-5.973622695489653
 30
0.0
 10
15.55650966821513
 20
-6.022436949536035
 30
0.0
 10
15.5594113913368
 20
-6.036937991041314
 30
0.0
 10
15.56946980048737
 20
-6.04963639596695
 30
0.0
 10
15.58441098154973
 20
-6.054972772508361
 30
0.0
 10
15.60706764914903
 20
-6.063061914807071
 30
0.0
 10
15.63197466698847
 20
-6.051274085408623
 30
0.0
 10
15.64006380928721
 20
-6.028622467211386
 30
0.0
 10
15.65568834277832
 20
-5.984870238854417
 30
0.0
 10
15.69867390357043
 20
-5.954395413540169
 30
0.0
 10
15.74702361261582
 20
-5.952790545212704
 30
0.0
 10
15.80215971819653
 20
-5.951036719520807
 30
0.0
 10
15.85133752920029
 20
-5.986581986194778
 30
0.0
 10
15.86431617594707
 20
-6.037487534312352
 30
0.0
 10
15.86933359858388
 20
-6.057183569097914
 30
0.0
 10
15.88704185204291
 20
-6.070290134033383
 30
0.0
 10
15.90647363478082
 20
-6.070290134033383
 30
0.0
 10
15.91003346332056
 20
-6.070290134033383
 30
0.0
 10
15.91364715215028
 20
-6.069854202311515
 30
0.0
 10
15.91725579157765
 20
-6.068929320144813
 30
0.0
 10
15.92324774883597
 20
-6.067404400685265
 30
0.0
 10
15.92859843201695
 20
-6.064672674103753
 30
0.0
 10
15.93318665546806
 20
-6.061105271460772
 30
0.0
 10
15.9444687030811
 20
-6.056083640988819
 30
0.0
 10
15.95360475476597
 20
-6.046435074982329
 30
0.0
 10
15.95734131238209
 20
-6.033649988652542
 30
0.0
 10
15.97011293363943
 20
-5.989951620585543
 30
0.0
 10
16.01068992958972
 20
-5.959529813994221
 30
0.0
 10
16.058322623525
 20
-5.957945984842518
 30
0.0
 10
16.10779834925749
 20
-5.956255276677931
 30
0.0
 10
16.15163894215263
 20
-5.98645406800612
 30
0.0
 10
16.16562241993418
 20
-6.031247314780002
 30
0.0
 10
16.1727875216332
 20
-6.054196847706079
 30
0.0
 10
16.1971778173157
 20
-6.067016438284124
 30
0.0
 10
16.22016269605708
 20
-6.059830297409335
 30
0.0
 10
16.22096386787027
 20
-6.059581193568243
 30
0.0
 10
16.22164890343321
 20
-6.059157043784808
 30
0.0
 10
16.22242482823556
 20
-6.05886586159219
 30
0.0
 10
16.23884380100362
 20
-6.055065344881743
 30
0.0
 10
16.25229709155582
 20
-6.041984868524196
 30
0.0
 10
16.2555068282107
 20
-6.02434898982968
 30
0.0
 10
16.26149205293278
 20
-5.991450451467143
 30
0.0
 10
16.29232875207029
 20
-5.96668313375484
 30
0.0
 10
16.32881909851959
 20
-5.965471277230677
 30
0.0
 10
16.36518320991445
 20
-5.964185362807838
 30
0.0
 10
16.39774175519652
 20
-5.986921979275166
 30
0.0
 10
16.40589485658959
 20
-6.019352606368657
 30
0.0
 10
16.41177404386584
 20
-6.04268505229369
 30
0.0
 10
16.43544564130416
 20
-6.056886495936068
 30
0.0
 10
16.45874021671276
 20
-6.050955131503997
 30
0.0
 10
16.4773657782354
 20
-6.046269286277266
 30
0.0
 10
16.48993878967346
 20
-6.030206296363076
 30
0.0
 10
16.49134084034654
 20
-6.012062952749084
 30
0.0
 10
16.4968093429118
 20
-5.984147332775074
 30
0.0
 10
16.52103974085847
 20
-5.96332864757062
 30
0.0
 10
16.54967153437554
 20
-5.962378518393002
 30
0.0
 10
16.56599961790446
 20
-5.961825608853865
 30
0.0
 10
16.58179919733806
 20
-5.967724993738784
 30
0.0
 10
16.59382182393806
 20
-5.978960755165127
 30
0.0
 10
16.60583940113598
 20
-5.990206615395828
 30
0.0
 10
16.61276381466417
 20
-6.005460017826547
 30
0.0
 10
16.61331083323403
 20
-6.021915177977032
 30
0.0
 10
16.61367607332543
 20
-6.032925399439137
 30
0.0
 10
16.61820538708444
 20
-6.042743961985833
 30
0.0
 10
16.62519880910915
 20
-6.050183414536883
 30
0.0
 10
16.62559602874765
 20
-6.064218227907177
 30
0.0
 10
16.62635512220931
 20
-6.077150588467323
 30
0.0
 10
16.62730945922208
 20
-6.088771787593714
 30
0.0
 10
16.60523178973972
 20
-6.077130390858605
 30
0.0
 10
16.57999319449027
 20
-6.070789183282588
 30
0.0
 10
16.55330205454584
 20
-6.071650947921979
 30
0.0
 10
16.51041916493154
 20
-6.073077404038941
 30
0.0
 10
16.47159767780722
 20
-6.093038532439146
 30
0.0
 10
16.44510851395014
 20
-6.124060376323339
 30
0.0
 10
16.41524803256834
 20
-6.092623639893039
 30
0.0
 10
16.37272028424096
 20
-6.073456109202728
 30
0.0
 10
16.326003215235
 20
-6.074967563589805
 30
0.0
 10
16.27970524661027
 20
-6.07651015595699
 30
0.0
 10
16.23781877236027
 20
-6.0984304524046
 30
0.0
 10
16.2097979565075
 20
-6.132437334546517
 30
0.0
 10
16.20511379441485
 20
-6.127313874463854
 30
0.0
 10
16.20017379594487
 20
-6.122361252488417
 30
0.0
 10
16.19487024051763
 20
-6.117677090395773
 30
0.0
 10
16.15625746201694
 20
-6.083576794313457
 30
0.0
 10
16.10589472463415
 20
-6.065793641388583
 30
0.0
 10
16.05340113952972
 20
-6.067505388728932
 30
0.0
 10
15.99525559024735
 20
-6.069436785064302
 30
0.0
 10
15.94254151458083
 20
-6.095720606565869
 30
0.0
 10
15.90701560394862
 20
-6.136449926148694
 30
0.0
 10
15.90117176248777
 20
-6.129209924983948
 30
0.0
 10
15.89497782914208
 20
-6.122200513185564
 30
0.0
 10
15.88806351441819
 20
-6.115731387420889
 30
0.0
 10
15.84930766952223
 20
-6.079463214667586
 30
0.0
 10
15.79878335126957
 20
-6.060447166042801
 30
0.0
 10
15.74572086685235
 20
-6.06223297128185
 30
0.0
 10
15.68969270021931
 20
-6.064097042254767
 30
0.0
 10
15.63888898171237
 20
-6.089671422749486
 30
0.0
 10
15.60356841343554
 20
-6.129550759631355
 30
0.0
 10
15.59716577146638
 20
-6.121008854270157
 30
0.0
 10
15.59008482647043
 20
-6.112889415558357
 30
0.0
 10
15.58212696862847
 20
-6.105442388904041
 30
0.0
 10
15.54661283993457
 20
-6.072203857461115
 30
0.0
 10
15.50024586281334
 20
-6.054866735062508
 30
0.0
 10
15.45168407887624
 20
-6.056418584667022
 30
0.0
 10
15.40502928583055
 20
-6.057962860168295
 30
0.0
 10
15.36133007619638
 20
-6.07757978765297
 30
0.0
 10
15.32906439624096
 20
-6.109765518740535
 30
0.0
 10
15.29629377606708
 20
-6.076961235885443
 30
0.0
 10
15.25309109098112
 20
-6.057966226436418
 30
0.0
 10
15.20652887030875
 20
-6.056418584667022
 30
0.0
 10
15.15795698756723
 20
-6.054951733332599
 30
0.0
 10
15.11159001044598
 20
-6.072203857461115
 30
0.0
 10
15.07607083234999
 20
-6.105442388904041
 30
0.0
 10
15.06811297450806
 20
-6.112888573991313
 30
0.0
 10
15.06103202951208
 20
-6.121008012703138
 30
0.0
 10
15.05462938754292
 20
-6.129549918064312
 30
0.0
 10
15.01930713613208
 20
-6.089671422749486
 30
0.0
 10
14.96850678389334
 20
-6.064097042254767
 30
0.0
 10
14.9124819835282
 20
-6.06223297128185
 30
0.0
 10
14.84750459309096
 20
-6.05999271984625
 30
0.0
 10
14.78901063505792
 20
-6.089455140022614
 30
0.0
 10
14.7511939789682
 20
-6.136462549654172
 30
0.0
 10
14.71566975147001
 20
-6.095725655968054
 30
0.0
 10
14.66295399266957
 20
-6.069436785064302
 30
0.0
 10
14.60480676025307
 20
-6.067505388728932
 30
0.0
 10
14.55211624846346
 20
-6.065793641388583
 30
0.0
 10
14.50193192329124
 20
-6.083576794313457
 30
0.0
 10
14.46332756046084
 20
-6.117677090395773
 30
0.0
 10
14.45802232189958
 20
-6.122361252488417
 30
0.0
 10
14.45308232342957
 20
-6.127313874463854
 30
0.0
 10
14.44839816133695
 20
-6.132437334546517
 30
0.0
 10
14.42037734548403
 20
-6.0984304524046
 30
0.0
 10
14.37848750496596
 20
-6.07651015595699
 30
0.0
 10
14.33218785320721
 20
-6.074967563589805
 30
0.0
 10
14.28557513851304
 20
-6.073604225000129
 30
0.0
 10
14.24304907331973
 20
-6.092756607483882
 30
0.0
 10
14.21316586962805
 20
-6.1241394836242
 30
0.0
 10
14.18667586420404
 20
-6.093070511986323
 30
0.0
 10
14.14781987283138
 20
-6.073078245605958
 30
0.0
 10
14.1048957464325
 20
-6.071650947921979
 30
0.0
 10
14.07824079387041
 20
-6.07079086641665
 30
0.0
 10
14.05298789198153
 20
-6.077160687271695
 30
0.0
 10
14.03088160922013
 20
-6.088844162358352
 30
0.0
 10
14.03183931250098
 20
-6.077203607190262
 30
0.0
 10
14.03260008909668
 20
-6.064245999619187
 30
0.0
 10
14.03299730873515
 20
-6.05018173140282
 30
0.0
  0
SPLINE
  5
4A
330
41
100
AcDbEntity
  8
Layer 2
 62
     7
420
 16777215
370
     9
100
AcDbSpline
210
0.0
220
0.0
230
1.0
 70
    11
 71
     3
 72
    32
 73
    28
 74
     0
 42
0.0000000001
 43
0.0000000001
 12
1.0
 22
0.0
 32
0.0
 13
1.0
 23
0.0
 33
0.0
 40
0.0
 40
0.0
 40
0.0
 40
0.0
 40
1.0
 40
1.0
 40
1.0
 40
2.0
 40
2.0
 40
2.0
 40
3.0
 40
3.0
 40
3.0
 40
4.0
 40
4.0
 40
4.0
 40
5.0
 40
5.0
 40
5.0
 40
6.0
 40
6.0
 40
6.0
 40
7.0
 40
7.0
 40
7.0
 40
8.0
 40
8.0
 40
8.0
 40
9.0
 40
9.0
 40
9.0
 40
9.0
 10
16.42046743129251
 20
-6.74749996517221
 30
0.0
 10
16.41961071605528
 20
-6.759940850586467
 30
0.0
 10
16.41520763735083
 20
-6.772141047829942
 30
0.0
 10
16.40735750008889
 20
-6.78294256066844
 30
0.0
 10
16.39546784107971
 20
-6.799322821353194
 30
0.0
 10
16.37744484155112
 20
-6.810526603232372
 30
0.0
 10
16.35662110694446
 20
-6.814502165885212
 30
0.0
 10
16.32347009847278
 20
-6.820817284883282
 30
0.0
 10
16.29081393141501
 20
-6.80669494854179
 30
0.0
 10
16.27541325475404
 20
-6.780645924241778
 30
0.0
 10
16.28599006919527
 20
-6.69367417945826
 30
0.0
 10
16.28696292068278
 20
-6.601412344320023
 30
0.0
 10
16.28350239705264
 20
-6.516762482974096
 30
0.0
 10
16.33448452777
 20
-6.510381721747636
 30
0.0
 10
16.38407302348459
 20
-6.503567553500387
 30
0.0
 10
16.43125127122332
 20
-6.496308196293916
 30
0.0
 10
16.43328618030346
 20
-6.56600425307205
 30
0.0
 10
16.43131186404958
 20
-6.639855126280533
 30
0.0
 10
16.42147226232709
 20
-6.7084478886815
 30
0.0
 10
16.4196527944068
 20
-6.713551992722437
 30
0.0
 10
16.41877756469487
 20
-6.718995248276744
 30
0.0
 10
16.41899805525696
 20
-6.724629539547019
 30
0.0
 10
16.41888360214084
 20
-6.725322990780265
 30
0.0
 10
16.41879271290152
 20
-6.726030748653051
 30
0.0
 10
16.41867825978529
 20
-6.726722516752261
 30
0.0
 10
16.41746976952931
 20
-6.733954943813741
 30
0.0
 10
16.41830797029181
 20
-6.740992968891153
 30
0.0
 10
16.42046743129251
 20
-6.74749996517221
 30
0.0
  0
SPLINE
  5
4B
330
41
100
AcDbEntity
  8
Layer 2
 62
     7
420
 16777215
370
     9
100
AcDbSpline
210
0.0
220
0.0
230
1.0
 70
    11
 71
     3
 72
    29
 73
    25
 74
     0
 42
0.0000000001
 43
0.0000000001
 12
1.0
 22
0.0
 32
0.0
 13
1.0
 23
0.0
 33
0.0
 40
0.0
 40
0.0
 40
0.0
 40
0.0
 40
1.0
 40
1.0
 40
1.0
 40
2.0
 40
2.0
 40
2.0
 40
3.0
 40
3.0
 40
3.0
 40
4.0
 40
4.0
 40
4.0
 40
5.0
 40
5.0
 40
5.0
 40
6.0
 40
6.0
 40
6.0
 40
7.0
 40
7.0
 40
7.0
 40
8.0
 40
8.0
 40
8.0
 40
8.0
 10
16.25829914761847
 20
-6.248889172414035
 30
0.0
 10
16.25807529078833
 20
-6.243909620293632
 30
0.0
 10
16.25765955667513
 20
-6.23897046339069
 30
0.0
 10
16.25704521274277
 20
-6.234075067973334
 30
0.0
 10
16.25941338236708
 20
-6.229841144242098
 30
0.0
 10
16.2612580972982
 20
-6.225234406316253
 30
0.0
 10
16.26211986193764
 20
-6.220178271596069
 30
0.0
 10
16.26766747180376
 20
-6.187577647962371
 30
0.0
 10
16.29575561301903
 20
-6.163108244978907
 30
0.0
 10
16.32889988895459
 20
-6.162002425900608
 30
0.0
 10
16.36748405417625
 20
-6.160578494484753
 30
0.0
 10
16.40001566931333
 20
-6.191096239717555
 30
0.0
 10
16.40129821746819
 20
-6.229734265229202
 30
0.0
 10
16.40159949846515
 20
-6.238834129531723
 30
0.0
 10
16.40472002901485
 20
-6.24714544552651
 30
0.0
 10
16.40972398657903
 20
-6.25396971257813
 30
0.0
 10
16.41521436988708
 20
-6.291916811557611
 30
0.0
 10
16.42202769656736
 20
-6.34641500932907
 30
0.0
 10
16.42667146344249
 20
-6.408845817931503
 30
0.0
 10
16.37959588688154
 20
-6.416159035427957
 30
0.0
 10
16.32975828732583
 20
-6.423029588666243
 30
0.0
 10
16.27834359115473
 20
-6.429475992121095
 30
0.0
 10
16.27247113641473
 20
-6.35305749790205
 30
0.0
 10
16.2641463553475
 20
-6.28874578698608
 30
0.0
 10
16.25829914761847
 20
-6.248889172414035
 30
0.0
  0
SPLINE
  5
4C
330
41
100
AcDbEntity
  8
Layer 2
 62
     7
420
 16777215
370
     9
100
AcDbSpline
210
0.0
220
0.0
230
1.0
 70
    11
 71
     3
 72
    20
 73
    16
 74
     0
 42
0.0000000001
 43
0.0000000001
 12
1.0
 22
0.0
 32
0.0
 13
1.0
 23
0.0
 33
0.0
 40
0.0
 40
0.0
 40
0.0
 40
0.0
 40
1.0
 40
1.0
 40
1.0
 40
2.0
 40
2.0
 40
2.0
 40
3.0
 40
3.0
 40
3.0
 40
4.0
 40
4.0
 40
4.0
 40
5.0
 40
5.0
 40
5.0
 40
5.0
 10
15.98402571979027
 20
-6.548646933064699
 30
0.0
 10
16.0545961647132
 20
-6.542216519383423
 30
0.0
 10
16.12627411184846
 20
-6.535043843581105
 30
0.0
 10
16.19655505771306
 20
-6.527101133945735
 30
0.0
 10
16.19989439569068
 20
-6.613826299589264
 30
0.0
 10
16.19832234847735
 20
-6.70779230796461
 30
0.0
 10
16.1858974528368
 20
-6.793196213370012
 30
0.0
 10
16.17763663086374
 20
-6.836520084108365
 30
0.0
 10
16.13906593071457
 20
-6.872738604406853
 30
0.0
 10
16.09032236829876
 20
-6.882117027396538
 30
0.0
 10
16.04574624581874
 20
-6.890658091190693
 30
0.0
 10
16.00152189835765
 20
-6.875823789141249
 30
0.0
 10
15.97579856049848
 20
-6.8448574886811
 30
0.0
 10
15.98748792655429
 20
-6.747036261738331
 30
0.0
 10
15.98822682240737
 20
-6.643210454031784
 30
0.0
 10
15.98402571979027
 20
-6.548646933064699
 30
0.0
  0
SPLINE
  5
4D
330
41
100
AcDbEntity
  8
Layer 2
 62
     7
420
 16777215
370
     9
100
AcDbSpline
210
0.0
220
0.0
230
1.0
 70
    11
 71
     3
 72
    23
 73
    19
 74
     0
 42
0.0000000001
 43
0.0000000001
 12
1.0
 22
0.0
 32
0.0
 13
1.0
 23
0.0
 33
0.0
 40
0.0
 40
0.0
 40
0.0
 40
0.0
 40
1.0
 40
1.0
 40
1.0
 40
2.0
 40
2.0
 40
2.0
 40
3.0
 40
3.0
 40
3.0
 40
4.0
 40
4.0
 40
4.0
 40
5.0
 40
5.0
 40
5.0
 40
6.0
 40
6.0
 40
6.0
 40
6.0
 10
15.95176677237098
 20
-6.231307995576521
 30
0.0
 10
15.96441384170778
 20
-6.187885661495582
 30
0.0
 10
16.00678337543334
 20
-6.156175415780328
 30
0.0
 10
16.05628603131082
 20
-6.15454025103976
 30
0.0
 10
16.08658244441459
 20
-6.153350275258415
 30
0.0
 10
16.11534383925432
 20
-6.163618234599476
 30
0.0
 10
16.13722626518554
 20
-6.182943138324516
 30
0.0
 10
16.15149419262333
 20
-6.195545604608646
 30
0.0
 10
16.16154923550569
 20
-6.211140683253815
 30
0.0
 10
16.16694199703819
 20
-6.228232068079478
 30
0.0
 10
16.17086706566917
 20
-6.252199897112657
 30
0.0
 10
16.18362185558585
 20
-6.334750890284113
 30
0.0
 10
16.19155278328278
 20
-6.439810435257615
 30
0.0
 10
16.12137619173013
 20
-6.447745570789695
 30
0.0
 10
16.04952656492055
 20
-6.454924979128261
 30
0.0
 10
15.97868345227958
 20
-6.461384006088565
 30
0.0
 10
15.97027788077735
 20
-6.352209198335155
 30
0.0
 10
15.95730933283486
 20
-6.265484874258643
 30
0.0
 10
15.95176677237098
 20
-6.231307995576521
 30
0.0
  0
SPLINE
  5
4E
330
41
100
AcDbEntity
  8
Layer 2
 62
     7
420
 16777215
370
     9
100
AcDbSpline
210
0.0
220
0.0
230
1.0
 70
    11
 71
     3
 72
    26
 73
    22
 74
     0
 42
0.0000000001
 43
0.0000000001
 12
1.0
 22
0.0
 32
0.0
 13
1.0
 23
0.0
 33
0.0
 40
0.0
 40
0.0
 40
0.0
 40
0.0
 40
1.0
 40
1.0
 40
1.0
 40
2.0
 40
2.0
 40
2.0
 40
3.0
 40
3.0
 40
3.0
 40
4.0
 40
4.0
 40
4.0
 40
5.0
 40
5.0
 40
5.0
 40
6.0
 40
6.0
 40
6.0
 40
7.0
 40
7.0
 40
7.0
 40
7.0
 10
15.67587416957584
 20
-6.573169354771077
 30
0.0
 10
15.74435584512861
 20
-6.568428807687369
 30
0.0
 10
15.81924184578487
 20
-6.56280798148959
 30
0.0
 10
15.89690501764221
 20
-6.556274896630586
 30
0.0
 10
15.90114146607458
 20
-6.653426236216975
 30
0.0
 10
15.89999693491291
 20
-6.759726250993632
 30
0.0
 10
15.88646622019403
 20
-6.856586408387405
 30
0.0
 10
15.88474269091514
 20
-6.860030942243888
 30
0.0
 10
15.88329014622028
 20
-6.863653046743845
 30
0.0
 10
15.88251253828402
 20
-6.867618510592314
 30
0.0
 10
15.87387132801319
 20
-6.911730929638401
 30
0.0
 10
15.83914490606
 20
-6.945799246173565
 30
0.0
 10
15.79404869515499
 20
-6.95440931846426
 30
0.0
 10
15.74249598199097
 20
-6.964156347813362
 30
0.0
 10
15.69087762659835
 20
-6.93708229487
 30
0.0
 10
15.67124891717529
 20
-6.889844295872055
 30
0.0
 10
15.67060932623195
 20
-6.888301703504844
 30
0.0
 10
15.66971726517944
 20
-6.886957720956893
 30
0.0
 10
15.6689261921707
 20
-6.885530423272889
 30
0.0
 10
15.68036308811735
 20
-6.781794663238618
 30
0.0
 10
15.68059704375181
 20
-6.672447334243921
 30
0.0
 10
15.67587416957584
 20
-6.573169354771077
 30
0.0
  0
SPLINE
  5
4F
330
41
100
AcDbEntity
  8
Layer 2
 62
     7
420
 16777215
370
     9
100
AcDbSpline
210
0.0
220
0.0
230
1.0
 70
    11
 71
     3
 72
    29
 73
    25
 74
     0
 42
0.0000000001
 43
0.0000000001
 12
1.0
 22
0.0
 32
0.0
 13
1.0
 23
0.0
 33
0.0
 40
0.0
 40
0.0
 40
0.0
 40
0.0
 40
1.0
 40
1.0
 40
1.0
 40
2.0
 40
2.0
 40
2.0
 40
3.0
 40
3.0
 40
3.0
 40
4.0
 40
4.0
 40
4.0
 40
5.0
 40
5.0
 40
5.0
 40
6.0
 40
6.0
 40
6.0
 40
7.0
 40
7.0
 40
7.0
 40
8.0
 40
8.0
 40
8.0
 40
8.0
 10
15.64192198929082
 20
-6.243271712484379
 30
0.0
 10
15.64201624479834
 20
-6.242805484349396
 30
0.0
 10
15.6422148546175
 20
-6.242388067102183
 30
0.0
 10
15.6422956450525
 20
-6.241915947997995
 30
0.0
 10
15.65113378200848
 20
-6.189979480267866
 30
0.0
 10
15.69584623834736
 20
-6.151022500851594
 30
0.0
 10
15.74861249116972
 20
-6.149268675159697
 30
0.0
 10
15.77851841717125
 20
-6.148215874804363
 30
0.0
 10
15.80679843566958
 20
-6.15894080504308
 30
0.0
 10
15.82856809161861
 20
-6.179307568752064
 30
0.0
 10
15.85033774756776
 20
-6.199684431265445
 30
0.0
 10
15.86287036378834
 20
-6.227300453376529
 30
0.0
 10
15.86386341288443
 20
-6.257095292530013
 30
0.0
 10
15.86413608060249
 20
-6.265260175861461
 30
0.0
 10
15.86674830466568
 20
-6.272747597733238
 30
0.0
 10
15.87087534938402
 20
-6.279146031867336
 30
0.0
 10
15.87697166095404
 20
-6.321741105557142
 30
0.0
 10
15.88554554586249
 20
-6.389421609296859
 30
0.0
 10
15.89164858996875
 20
-6.469016177489619
 30
0.0
 10
15.81396185423457
 20
-6.475562727421119
 30
0.0
 10
15.73899001374126
 20
-6.481207959062784
 30
0.0
 10
15.67038715253582
 20
-6.485988901363953
 30
0.0
 10
15.66145307693846
 20
-6.371141090256868
 30
0.0
 10
15.64785335372292
 20
-6.279916065700389
 30
0.0
 10
15.64192198929082
 20
-6.243271712484379
 30
0.0
  0
SPLINE
  5
50
330
41
100
AcDbEntity
  8
Layer 2
 62
     7
420
 16777215
370
     9
100
AcDbSpline
210
0.0
220
0.0
230
1.0
 70
    11
 71
     3
 72
    26
 73
    22
 74
     0
 42
0.0000000001
 43
0.0000000001
 12
1.0
 22
0.0
 32
0.0
 13
1.0
 23
0.0
 33
0.0
 40
0.0
 40
0.0
 40
0.0
 40
0.0
 40
1.0
 40
1.0
 40
1.0
 40
2.0
 40
2.0
 40
2.0
 40
3.0
 40
3.0
 40
3.0
 40
4.0
 40
4.0
 40
4.0
 40
5.0
 40
5.0
 40
5.0
 40
6.0
 40
6.0
 40
6.0
 40
7.0
 40
7.0
 40
7.0
 40
7.0
 10
15.57505107303473
 20
-6.92301970978767
 30
0.0
 10
15.58017116684917
 20
-6.975158153605157
 30
0.0
 10
15.54192026217167
 20
-7.021726265246722
 30
0.0
 10
15.48978686775624
 20
-7.026849725329359
 30
0.0
 10
15.46454658937278
 20
-7.029305417924838
 30
0.0
 10
15.4398280825482
 20
-7.021822203888203
 30
0.0
 10
15.42020947192944
 20
-7.005717977189508
 30
0.0
 10
15.40110253406541
 20
-6.990018544232548
 30
0.0
 10
15.3890647592589
 20
-6.967993893473148
 30
0.0
 10
15.38616976867332
 20
-6.943502609746903
 30
0.0
 10
15.38616976867332
 20
-6.943502609746903
 30
0.0
 10
15.38616976867332
 20
-6.590698354452696
 30
0.0
 10
15.38616976867332
 20
-6.590698354452696
 30
0.0
 10
15.43173557398139
 20
-6.588363005942609
 30
0.0
 10
15.50248106484681
 20
-6.584494322302665
 30
0.0
 10
15.58869792400376
 20
-6.578977008849657
 30
0.0
 10
15.59358911158597
 20
-6.681817341563297
 30
0.0
 10
15.59303536047987
 20
-6.795128451272401
 30
0.0
 10
15.57962583141332
 20
-6.8991343543235
 30
0.0
 10
15.57599699437709
 20
-6.906275892145686
 30
0.0
 10
15.57421118913807
 20
-6.914457606817753
 30
0.0
 10
15.57505107303473
 20
-6.92301970978767
 30
0.0
  0
SPLINE
  5
51
330
41
100
AcDbEntity
  8
Layer 2
 62
     7
420
 16777215
370
     9
100
AcDbSpline
210
0.0
220
0.0
230
1.0
 70
    11
 71
     3
 72
    32
 73
    28
 74
     0
 42
0.0000000001
 43
0.0000000001
 12
1.0
 22
0.0
 32
0.0
 13
1.0
 23
0.0
 33
0.0
 40
0.0
 40
0.0
 40
0.0
 40
0.0
 40
1.0
 40
1.0
 40
1.0
 40
2.0
 40
2.0
 40
2.0
 40
3.0
 40
3.0
 40
3.0
 40
4.0
 40
4.0
 40
4.0
 40
5.0
 40
5.0
 40
5.0
 40
6.0
 40
6.0
 40
6.0
 40
7.0
 40
7.0
 40
7.0
 40
8.0
 40
8.0
 40
8.0
 40
9.0
 40
9.0
 40
9.0
 40
9.0
 10
15.38438564656846
 20
-6.178345657636024
 30
0.0
 10
15.4015771778707
 20
-6.157439449460374
 30
0.0
 10
15.42703962995029
 20
-6.144361497803932
 30
0.0
 10
15.45457570319346
 20
-6.14345344697785
 30
0.0
 10
15.48002300706652
 20
-6.142486486459625
 30
0.0
 10
15.50410360608195
 20
-6.15169154664098
 30
0.0
 10
15.5226315458289
 20
-6.169028669039587
 30
0.0
 10
15.54116453497805
 20
-6.18636579143822
 30
0.0
 10
15.55183055552473
 20
-6.209878332707805
 30
0.0
 10
15.55267548882347
 20
-6.235240638310794
 30
0.0
 10
15.55271251777279
 20
-6.236312794707853
 30
0.0
 10
15.55297845295445
 20
-6.237312576340299
 30
0.0
 10
15.55308953980249
 20
-6.238362851994553
 30
0.0
 10
15.5531972603825
 20
-6.239371049297283
 30
0.0
 10
15.55313666755625
 20
-6.240360732125332
 30
0.0
 10
15.55331507976681
 20
-6.241373978830248
 30
0.0
 10
15.5536685379196
 20
-6.243385324033524
 30
0.0
 10
15.57204331246708
 20
-6.349282228202506
 30
0.0
 10
15.58318061055082
 20
-6.491844524763287
 30
0.0
 10
15.49999339270415
 20
-6.49721793025406
 30
0.0
 10
15.43132320613639
 20
-6.501061366883075
 30
0.0
 10
15.38616976867332
 20
-6.503437952177642
 30
0.0
 10
15.38616976867332
 20
-6.503437952177642
 30
0.0
 10
15.38616976867332
 20
-6.190011459815044
 30
0.0
 10
15.38616976867332
 20
-6.190011459815044
 30
0.0
 10
15.38616976867332
 20
-6.185942483221803
 30
0.0
 10
15.38543087282041
 20
-6.182082215252168
 30
0.0
 10
15.38438564656846
 20
-6.178345657636024
 30
0.0
  0
SPLINE
  5
52
330
41
100
AcDbEntity
  8
Layer 2
 62
     7
420
 16777215
370
     9
100
AcDbSpline
210
0.0
220
0.0
230
1.0
 70
    11
 71
     3
 72
    29
 73
    25
 74
     0
 42
0.0000000001
 43
0.0000000001
 12
1.0
 22
0.0
 32
0.0
 13
1.0
 23
0.0
 33
0.0
 40
0.0
 40
0.0
 40
0.0
 40
0.0
 40
1.0
 40
1.0
 40
1.0
 40
2.0
 40
2.0
 40
2.0
 40
3.0
 40
3.0
 40
3.0
 40
4.0
 40
4.0
 40
4.0
 40
5.0
 40
5.0
 40
5.0
 40
6.0
 40
6.0
 40
6.0
 40
7.0
 40
7.0
 40
7.0
 40
8.0
 40
8.0
 40
8.0
 40
8.0
 10
15.07857028643111
 20
-6.8991343543235
 30
0.0
 10
15.06516244049863
 20
-6.795128451272401
 30
0.0
 10
15.06460700625833
 20
-6.681817341563297
 30
0.0
 10
15.06949819384054
 20
-6.578977008849657
 30
0.0
 10
15.17540772151501
 20
-6.585754148147569
 30
0.0
 10
15.25787119171527
 20
-6.590038565900638
 30
0.0
 10
15.29909114487694
 20
-6.592054118939081
 30
0.0
 10
15.29909114487694
 20
-6.592054118939081
 30
0.0
 10
15.29909114487694
 20
-6.942756139790718
 30
0.0
 10
15.29909114487694
 20
-6.942756139790718
 30
0.0
 10
15.29648565335015
 20
-6.964378521509438
 30
0.0
 10
15.28060696661555
 20
-6.986271887812058
 30
0.0
 10
15.25520174109402
 20
-7.002997190979386
 30
0.0
 10
15.22881861468292
 20
-7.020376391729542
 30
0.0
 10
15.19558008323985
 20
-7.029475414465018
 30
0.0
 10
15.16841598262431
 20
-7.026849725329359
 30
0.0
 10
15.14315887290013
 20
-7.024362894753772
 30
0.0
 10
15.12037933651416
 20
-7.01220225116074
 30
0.0
 10
15.10427679294958
 20
-6.992590373078251
 30
0.0
 10
15.08817256625098
 20
-6.972978494995762
 30
0.0
 10
15.08066747147152
 20
-6.948275977944806
 30
0.0
 10
15.08314504480973
 20
-6.92301970978767
 30
0.0
 10
15.08398492870639
 20
-6.914457606817753
 30
0.0
 10
15.08219912346721
 20
-6.906275892145686
 30
0.0
 10
15.07857028643111
 20
-6.8991343543235
 30
0.0
  0
SPLINE
  5
53
330
41
100
AcDbEntity
  8
Layer 2
 62
     7
420
 16777215
370
     9
100
AcDbSpline
210
0.0
220
0.0
230
1.0
 70
    11
 71
     3
 72
    35
 73
    31
 74
     0
 42
0.0000000001
 43
0.0000000001
 12
1.0
 22
0.0
 32
0.0
 13
1.0
 23
0.0
 33
0.0
 40
0.0
 40
0.0
 40
0.0
 40
0.0
 40
1.0
 40
1.0
 40
1.0
 40
2.0
 40
2.0
 40
2.0
 40
3.0
 40
3.0
 40
3.0
 40
4.0
 40
4.0
 40
4.0
 40
5.0
 40
5.0
 40
5.0
 40
6.0
 40
6.0
 40
6.0
 40
7.0
 40
7.0
 40
7.0
 40
8.0
 40
8.0
 40
8.0
 40
9.0
 40
9.0
 40
9.0
 40
10.0
 40
10.0
 40
10.0
 40
10.0
 10
15.07501719042764
 20
-6.491844524763287
 30
0.0
 10
15.08615448851138
 20
-6.349282228202506
 30
0.0
 10
15.10452757992473
 20
-6.243385324033524
 30
0.0
 10
15.10488272121168
 20
-6.241373978830248
 30
0.0
 10
15.1050661828243
 20
-6.240327911011136
 30
0.0
 10
15.1050055899982
 20
-6.239306248635911
 30
0.0
 10
15.10511331057806
 20
-6.238266913353047
 30
0.0
 10
15.10522103115793
 20
-6.237246934111883
 30
0.0
 10
15.10548696633971
 20
-6.236281656727719
 30
0.0
 10
15.10552062902098
 20
-6.235240638310794
 30
0.0
 10
15.10636556231973
 20
-6.209878332707805
 30
0.0
 10
15.11703326600029
 20
-6.18636579143822
 30
0.0
 10
15.13556457201541
 20
-6.169028669039587
 30
0.0
 10
15.15408577922626
 20
-6.151681447836609
 30
0.0
 10
15.17816301197334
 20
-6.142444408108101
 30
0.0
 10
15.20363051345528
 20
-6.14345344697785
 30
0.0
 10
15.22899366062527
 20
-6.144293330874436
 30
0.0
 10
15.25250704346179
 20
-6.154966083957283
 30
0.0
 10
15.26984332429346
 20
-6.173493182137236
 30
0.0
 10
15.28718128825903
 20
-6.192020280317213
 30
0.0
 10
15.29626347965389
 20
-6.216192610138856
 30
0.0
 10
15.29542359575736
 20
-6.241554915741845
 30
0.0
 10
15.29520142206125
 20
-6.248211710954365
 30
0.0
 10
15.29660683900251
 20
-6.254500741374486
 30
0.0
 10
15.29909114487694
 20
-6.260230971286243
 30
0.0
 10
15.29909114487694
 20
-6.260230971286243
 30
0.0
 10
15.29909114487694
 20
-6.504834111881514
 30
0.0
 10
15.29909114487694
 20
-6.504834111881514
 30
0.0
 10
15.25739654791
 20
-6.5027310358719
 30
0.0
 10
15.1771817448157
 20
-6.498444093417724
 30
0.0
 10
15.07501719042764
 20
-6.491844524763287
 30
0.0
  0
SPLINE
  5
54
330
41
100
AcDbEntity
  8
Layer 2
 62
     7
420
 16777215
370
     9
100
AcDbSpline
210
0.0
220
0.0
230
1.0
 70
    11
 71
     3
 72
    26
 73
    22
 74
     0
 42
0.0000000001
 43
0.0000000001
 12
1.0
 22
0.0
 32
0.0
 13
1.0
 23
0.0
 33
0.0
 40
0.0
 40
0.0
 40
0.0
 40
0.0
 40
1.0
 40
1.0
 40
1.0
 40
2.0
 40
2.0
 40
2.0
 40
3.0
 40
3.0
 40
3.0
 40
4.0
 40
4.0
 40
4.0
 40
5.0
 40
5.0
 40
5.0
 40
6.0
 40
6.0
 40
6.0
 40
7.0
 40
7.0
 40
7.0
 40
7.0
 10
14.98927160880779
 20
-6.885530423272889
 30
0.0
 10
14.98848053579902
 20
-6.886957720956893
 30
0.0
 10
14.98758679161235
 20
-6.888301703504844
 30
0.0
 10
14.98694720066901
 20
-6.889844295872055
 30
0.0
 10
14.96732522378223
 20
-6.937072196065628
 30
0.0
 10
14.91563281049098
 20
-6.964156347813362
 30
0.0
 10
14.86415247209152
 20
-6.95440931846426
 30
0.0
 10
14.81905794432055
 20
-6.945799246173565
 30
0.0
 10
14.78433152236751
 20
-6.911730929638401
 30
0.0
 10
14.77568357956041
 20
-6.867607570220924
 30
0.0
 10
14.77490597162402
 20
-6.863649680475722
 30
0.0
 10
14.7734584763314
 20
-6.860030942243888
 30
0.0
 10
14.77173494705251
 20
-6.856589774655529
 30
0.0
 10
14.75820591546764
 20
-6.759728775694738
 30
0.0
 10
14.75705970117193
 20
-6.653428760918056
 30
0.0
 10
14.7612961496043
 20
-6.556274896630586
 30
0.0
 10
14.83895763832763
 20
-6.56280798148959
 30
0.0
 10
14.91384195584972
 20
-6.568428807687369
 30
0.0
 10
14.98232194826861
 20
-6.573169354771077
 30
0.0
 10
14.9775990740925
 20
-6.672447334243921
 30
0.0
 10
14.97783471286112
 20
-6.781795504805662
 30
0.0
 10
14.98927160880779
 20
-6.885530423272889
 30
0.0
  0
SPLINE
  5
55
330
41
100
AcDbEntity
  8
Layer 2
 62
     7
420
 16777215
370
     9
100
AcDbSpline
210
0.0
220
0.0
230
1.0
 70
    11
 71
     3
 72
    26
 73
    22
 74
     0
 42
0.0000000001
 43
0.0000000001
 12
1.0
 22
0.0
 32
0.0
 13
1.0
 23
0.0
 33
0.0
 40
0.0
 40
0.0
 40
0.0
 40
0.0
 40
1.0
 40
1.0
 40
1.0
 40
2.0
 40
2.0
 40
2.0
 40
3.0
 40
3.0
 40
3.0
 40
4.0
 40
4.0
 40
4.0
 40
5.0
 40
5.0
 40
5.0
 40
6.0
 40
6.0
 40
6.0
 40
7.0
 40
7.0
 40
7.0
 40
7.0
 10
14.98780896530848
 20
-6.485988901363953
 30
0.0
 10
14.91920778723723
 20
-6.481207959062784
 30
0.0
 10
14.84423762987793
 20
-6.475563568988137
 30
0.0
 10
14.76655089414375
 20
-6.469016177489619
 30
0.0
 10
14.77265393825001
 20
-6.389419926162796
 30
0.0
 10
14.7812261400243
 20
-6.321736056154956
 30
0.0
 10
14.78732076846043
 20
-6.279140982465151
 30
0.0
 10
14.79144781317874
 20
-6.272744231465114
 30
0.0
 10
14.79406172037597
 20
-6.265257651160381
 30
0.0
 10
14.79433270495987
 20
-6.257095292530013
 30
0.0
 10
14.79638444538055
 20
-6.195591890795336
 30
0.0
 10
14.8478580512439
 20
-6.147259013090484
 30
0.0
 10
14.90959035921082
 20
-6.149268675159697
 30
0.0
 10
14.96235492889915
 20
-6.151022500851594
 30
0.0
 10
15.00706401896999
 20
-6.189979480267866
 30
0.0
 10
15.0159072053282
 20
-6.241915947997995
 30
0.0
 10
15.01598799576305
 20
-6.242384700834084
 30
0.0
 10
15.01618323931416
 20
-6.242797068679086
 30
0.0
 10
15.01627749482168
 20
-6.243259088978927
 30
0.0
 10
15.01034613038958
 20
-6.279894184957609
 30
0.0
 10
14.99674472404
 20
-6.371127625184372
 30
0.0
 10
14.98780896530848
 20
-6.485988901363953
 30
0.0
  0
SPLINE
  5
56
330
41
100
AcDbEntity
  8
Layer 2
 62
     7
420
 16777215
370
     9
100
AcDbSpline
210
0.0
220
0.0
230
1.0
 70
    11
 71
     3
 72
    20
 73
    16
 74
     0
 42
0.0000000001
 43
0.0000000001
 12
1.0
 22
0.0
 32
0.0
 13
1.0
 23
0.0
 33
0.0
 40
0.0
 40
0.0
 40
0.0
 40
0.0
 40
1.0
 40
1.0
 40
1.0
 40
2.0
 40
2.0
 40
2.0
 40
3.0
 40
3.0
 40
3.0
 40
4.0
 40
4.0
 40
4.0
 40
5.0
 40
5.0
 40
5.0
 40
5.0
 10
14.68240428988209
 20
-6.844865062784391
 30
0.0
 10
14.65669610022943
 20
-6.87583977891485
 30
0.0
 10
14.61253402872861
 20
-6.890686704469746
 30
0.0
 10
14.56788048208182
 20
-6.882117027396538
 30
0.0
 10
14.51913018712973
 20
-6.872738604406853
 30
0.0
 10
14.48056117011457
 20
-6.836520084108365
 30
0.0
 10
14.47229866500763
 20
-6.793196213370012
 30
0.0
 10
14.45987376936695
 20
-6.70779230796461
 30
0.0
 10
14.45830172215374
 20
-6.613826299589264
 30
0.0
 10
14.46164106013139
 20
-6.527101133945735
 30
0.0
 10
14.53192537226389
 20
-6.535043843581105
 30
0.0
 10
14.6036033193993
 20
-6.542216519383423
 30
0.0
 10
14.67417544745639
 20
-6.548646933064699
 30
0.0
 10
14.66997266170513
 20
-6.643213820299908
 30
0.0
 10
14.67071324069222
 20
-6.747042152707536
 30
0.0
 10
14.68240428988209
 20
-6.844865062784391
 30
0.0
  0
SPLINE
  5
57
330
41
100
AcDbEntity
  8
Layer 2
 62
     7
420
 16777215
370
     9
100
AcDbSpline
210
0.0
220
0.0
230
1.0
 70
    11
 71
     3
 72
    23
 73
    19
 74
     0
 42
0.0000000001
 43
0.0000000001
 12
1.0
 22
0.0
 32
0.0
 13
1.0
 23
0.0
 33
0.0
 40
0.0
 40
0.0
 40
0.0
 40
0.0
 40
1.0
 40
1.0
 40
1.0
 40
2.0
 40
2.0
 40
2.0
 40
3.0
 40
3.0
 40
3.0
 40
4.0
 40
4.0
 40
4.0
 40
5.0
 40
5.0
 40
5.0
 40
6.0
 40
6.0
 40
6.0
 40
6.0
 10
14.67951603183292
 20
-6.461384006088565
 30
0.0
 10
14.60866955292388
 20
-6.45492582069528
 30
0.0
 10
14.53682160924834
 20
-6.447745570789695
 30
0.0
 10
14.46664333456167
 20
-6.439810435257615
 30
0.0
 10
14.47457426225861
 20
-6.334750890284113
 30
0.0
 10
14.48732905217528
 20
-6.252199897112657
 30
0.0
 10
14.49125412080624
 20
-6.228232068079478
 30
0.0
 10
14.49664688233861
 20
-6.211140683253815
 30
0.0
 10
14.50670192522097
 20
-6.195545604608646
 30
0.0
 10
14.52097153579292
 20
-6.182943138324516
 30
0.0
 10
14.54285227858999
 20
-6.163618234599476
 30
0.0
 10
14.57146219136431
 20
-6.153297256535476
 30
0.0
 10
14.6019201853379
 20
-6.15454025103976
 30
0.0
 10
14.65141947494723
 20
-6.156175415780328
 30
0.0
 10
14.69378227613667
 20
-6.187885661495582
 30
0.0
 10
14.70642934547332
 20
-6.231307995576521
 30
0.0
 10
14.70088678500944
 20
-6.265484874258643
 30
0.0
 10
14.68791992020098
 20
-6.352209198335155
 30
0.0
 10
14.67951603183292
 20
-6.461384006088565
 30
0.0
  0
SPLINE
  5
58
330
41
100
AcDbEntity
  8
Layer 2
 62
     7
420
 16777215
370
     9
100
AcDbSpline
210
0.0
220
0.0
230
1.0
 70
    11
 71
     3
 72
    29
 73
    25
 74
     0
 42
0.0000000001
 43
0.0000000001
 12
1.0
 22
0.0
 32
0.0
 13
1.0
 23
0.0
 33
0.0
 40
0.0
 40
0.0
 40
0.0
 40
0.0
 40
1.0
 40
1.0
 40
1.0
 40
2.0
 40
2.0
 40
2.0
 40
3.0
 40
3.0
 40
3.0
 40
4.0
 40
4.0
 40
4.0
 40
5.0
 40
5.0
 40
5.0
 40
6.0
 40
6.0
 40
6.0
 40
7.0
 40
7.0
 40
7.0
 40
8.0
 40
8.0
 40
8.0
 40
8.0
 10
14.23951954119305
 20
-6.726722516752261
 30
0.0
 10
14.2394034049429
 20
-6.726029065518989
 30
0.0
 10
14.23931251570361
 20
-6.725317099811061
 30
0.0
 10
14.23919806258737
 20
-6.724622807010771
 30
0.0
 10
14.23941855314943
 20
-6.718994406709726
 30
0.0
 10
14.23854164030346
 20
-6.713555358990561
 30
0.0
 10
14.23672722178541
 20
-6.708456304351785
 30
0.0
 10
14.22688509536179
 20
-6.639861017249763
 30
0.0
 10
14.22491077910791
 20
-6.56600677777313
 30
0.0
 10
14.22694652975514
 20
-6.496308196293916
 30
0.0
 10
14.27412477749388
 20
-6.503567553500387
 30
0.0
 10
14.3237115900743
 20
-6.510381721747636
 30
0.0
 10
14.37469372079181
 20
-6.516762482974096
 30
0.0
 10
14.37123319716167
 20
-6.601415710588147
 30
0.0
 10
14.37220604864903
 20
-6.693680911994508
 30
0.0
 10
14.38278622935862
 20
-6.780654339912088
 30
0.0
 10
14.36739228523374
 20
-6.806679800335233
 30
0.0
 10
14.33477651339348
 20
-6.820757533624096
 30
0.0
 10
14.30158174343612
 20
-6.814502165885212
 30
0.0
 10
14.26570742405319
 20
-6.807658542791891
 30
0.0
 10
14.2399453741107
 20
-6.779306991095988
 30
0.0
 10
14.23773036968598
 20
-6.747494074203005
 30
0.0
 10
14.23989151382069
 20
-6.740988761056011
 30
0.0
 10
14.24072634831514
 20
-6.733953260679678
 30
0.0
 10
14.23951954119305
 20
-6.726722516752261
 30
0.0
  0
SPLINE
  5
59
330
41
100
AcDbEntity
  8
Layer 2
 62
     7
420
 16777215
370
     9
100
AcDbSpline
210
0.0
220
0.0
230
1.0
 70
    11
 71
     3
 72
    29
 73
    25
 74
     0
 42
0.0000000001
 43
0.0000000001
 12
1.0
 22
0.0
 32
0.0
 13
1.0
 23
0.0
 33
0.0
 40
0.0
 40
0.0
 40
0.0
 40
0.0
 40
1.0
 40
1.0
 40
1.0
 40
2.0
 40
2.0
 40
2.0
 40
3.0
 40
3.0
 40
3.0
 40
4.0
 40
4.0
 40
4.0
 40
5.0
 40
5.0
 40
5.0
 40
6.0
 40
6.0
 40
6.0
 40
7.0
 40
7.0
 40
7.0
 40
8.0
 40
8.0
 40
8.0
 40
8.0
 10
14.37985420982376
 20
-6.429475992121095
 30
0.0
 10
14.3284378305186
 20
-6.423029588666243
 30
0.0
 10
14.27860191409695
 20
-6.416159035427957
 30
0.0
 10
14.23152633753582
 20
-6.408845817931503
 30
0.0
 10
14.23617010441111
 20
-6.346414167762027
 30
0.0
 10
14.24298174795722
 20
-6.291914286856505
 30
0.0
 10
14.24847213126526
 20
-6.253968029444068
 30
0.0
 10
14.25347777196362
 20
-6.247143762392447
 30
0.0
 10
14.25659830251334
 20
-6.238832446397661
 30
0.0
 10
14.25689790037624
 20
-6.229734265229202
 30
0.0
 10
14.2581854979332
 20
-6.191106338521927
 30
0.0
 10
14.29066493591444
 20
-6.160312559303065
 30
0.0
 10
14.32929286262167
 20
-6.162002425900608
 30
0.0
 10
14.36244050482527
 20
-6.163108244978907
 30
0.0
 10
14.39052864604057
 20
-6.187577647962371
 30
0.0
 10
14.39607793904083
 20
-6.220178271596069
 30
0.0
 10
14.39693802054611
 20
-6.225231881615173
 30
0.0
 10
14.39878273547735
 20
-6.22983441170585
 30
0.0
 10
14.40115258823569
 20
-6.234066652303024
 30
0.0
 10
14.40053824430333
 20
-6.238964572421461
 30
0.0
 10
14.40012251019013
 20
-6.24390793715957
 30
0.0
 10
14.39989865335999
 20
-6.248889172414035
 30
0.0
 10
14.39405144563097
 20
-6.28874578698608
 30
0.0
 10
14.38572498142958
 20
-6.35305749790205
 30
0.0
 10
14.37985420982376
 20
-6.429475992121095
 30
0.0
  0
SPLINE
  5
5A
330
41
100
AcDbEntity
  8
Layer 2
 62
     7
420
 16777215
370
     9
100
AcDbSpline
210
0.0
220
0.0
230
1.0
 70
    11
 71
     3
 72
    26
 73
    22
 74
     0
 42
0.0000000001
 43
0.0000000001
 12
1.0
 22
0.0
 32
0.0
 13
1.0
 23
0.0
 33
0.0
 40
0.0
 40
0.0
 40
0.0
 40
0.0
 40
1.0
 40
1.0
 40
1.0
 40
2.0
 40
2.0
 40
2.0
 40
3.0
 40
3.0
 40
3.0
 40
4.0
 40
4.0
 40
4.0
 40
5.0
 40
5.0
 40
5.0
 40
6.0
 40
6.0
 40
6.0
 40
7.0
 40
7.0
 40
7.0
 40
7.0
 10
14.03398025902695
 20
-6.23568919353814
 30
0.0
 10
14.03654872160458
 20
-6.230380588708739
 30
0.0
 10
14.03815106523098
 20
-6.224508975535829
 30
0.0
 10
14.03835977385458
 20
-6.218233410188203
 30
0.0
 10
14.03949168151083
 20
-6.184271972665934
 30
0.0
 10
14.06784575790779
 20
-6.157442815728498
 30
0.0
 10
14.10200917151736
 20
-6.158685810232782
 30
0.0
 10
14.13114506368584
 20
-6.159653612318051
 30
0.0
 10
14.15583243253028
 20
-6.181157333085467
 30
0.0
 10
14.16071183817404
 20
-6.209825313984892
 30
0.0
 10
14.16147682260485
 20
-6.214316757227506
 30
0.0
 10
14.16308253249945
 20
-6.218413505532756
 30
0.0
 10
14.16505600718624
 20
-6.222265357832081
 30
0.0
 10
14.15913726625973
 20
-6.260143448315047
 30
0.0
 10
14.15070308147834
 20
-6.321502100520446
 30
0.0
 10
14.145038493795
 20
-6.3942867083011
 30
0.0
 10
14.09899383684653
 20
-6.385871879561541
 30
0.0
 10
14.05690706964333
 20
-6.37695631843874
 30
0.0
 10
14.02021306397251
 20
-6.367518144189868
 30
0.0
 10
14.0236306676839
 20
-6.308296230675321
 30
0.0
 10
14.02988266915473
 20
-6.261695297919585
 30
0.0
 10
14.03398025902695
 20
-6.23568919353814
 30
0.0
  0
SPLINE
  5
5B
330
41
100
AcDbEntity
  8
Layer 2
 62
     7
420
 16777215
370
     9
100
AcDbSpline
210
0.0
220
0.0
230
1.0
 70
    11
 71
     3
 72
    29
 73
    25
 74
     0
 42
0.0000000001
 43
0.0000000001
 12
1.0
 22
0.0
 32
0.0
 13
1.0
 23
0.0
 33
0.0
 40
0.0
 40
0.0
 40
0.0
 40
0.0
 40
1.0
 40
1.0
 40
1.0
 40
2.0
 40
2.0
 40
2.0
 40
3.0
 40
3.0
 40
3.0
 40
4.0
 40
4.0
 40
4.0
 40
5.0
 40
5.0
 40
5.0
 40
6.0
 40
6.0
 40
6.0
 40
7.0
 40
7.0
 40
7.0
 40
8.0
 40
8.0
 40
8.0
 40
8.0
 10
14.14006651577792
 20
-6.481913192234464
 30
0.0
 10
14.13743998507529
 20
-6.557705560582715
 30
0.0
 10
14.13919296919999
 20
-6.639438550600365
 30
0.0
 10
14.14990190966513
 20
-6.716501685164909
 30
0.0
 10
14.13787759993112
 20
-6.737247995604725
 30
0.0
 10
14.11468401256611
 20
-6.749158693789645
 30
0.0
 10
14.09083821075251
 20
-6.747014380995526
 30
0.0
 10
14.07444700969624
 20
-6.745483570566749
 30
0.0
 10
14.05962953898749
 20
-6.737671303821141
 30
0.0
 10
14.04911163423834
 20
-6.725010769411912
 30
0.0
 10
14.03859877889125
 20
-6.712351076569676
 30
0.0
 10
14.03365036475098
 20
-6.696353728883878
 30
0.0
 10
14.03517023480835
 20
-6.679962527827733
 30
0.0
 10
14.03565497741806
 20
-6.674740604402485
 30
0.0
 10
14.03504399975375
 20
-6.669702984156957
 30
0.0
 10
14.03378249077473
 20
-6.664910259917355
 30
0.0
 10
14.03424703577568
 20
-6.660931330996391
 30
0.0
 10
14.03436485515999
 20
-6.656869928506416
 30
0.0
 10
14.0336714039268
 20
-6.652719319911208
 30
0.0
 10
14.02221262723722
 20
-6.5840836375917
 30
0.0
 10
14.01805865237389
 20
-6.516985498237217
 30
0.0
 10
14.01781459793513
 20
-6.456640092736734
 30
0.0
 10
14.05466092723847
 20
-6.46553882251894
 30
0.0
 10
14.09574033870596
 20
-6.473962066928808
 30
0.0
 10
14.14006651577792
 20
-6.481913192234464
 30
0.0
  0
SPLINE
  5
5C
330
41
100
AcDbEntity
  8
Layer 2
 62
     7
420
 16777215
370
     9
100
AcDbSpline
210
0.0
220
0.0
230
1.0
 70
    11
 71
     3
 72
    29
 73
    25
 74
     0
 42
0.0000000001
 43
0.0000000001
 12
1.0
 22
0.0
 32
0.0
 13
1.0
 23
0.0
 33
0.0
 40
0.0
 40
0.0
 40
0.0
 40
0.0
 40
1.0
 40
1.0
 40
1.0
 40
2.0
 40
2.0
 40
2.0
 40
3.0
 40
3.0
 40
3.0
 40
4.0
 40
4.0
 40
4.0
 40
5.0
 40
5.0
 40
5.0
 40
6.0
 40
6.0
 40
6.0
 40
7.0
 40
7.0
 40
7.0
 40
8.0
 40
8.0
 40
8.0
 40
8.0
 10
13.54788777584988
 20
-5.592073876696228
 30
0.0
 10
13.69383233030688
 20
-5.608725121964855
 30
0.0
 10
13.80131895459676
 20
-5.663452225968651
 30
0.0
 10
13.86737102613218
 20
-5.754739526485385
 30
0.0
 10
13.98131583581542
 20
-5.912216915530532
 30
0.0
 10
13.93789350173445
 20
-6.130740735412701
 30
0.0
 10
13.93732460242167
 20
-6.133515381912781
 30
0.0
 10
13.93346180975098
 20
-6.151963372791871
 30
0.0
 10
13.94199950727696
 20
-6.169998154258918
 30
0.0
 10
13.95717885180903
 20
-6.179362270609064
 30
0.0
 10
13.95635495768597
 20
-6.182226123214402
 30
0.0
 10
13.95554957803764
 20
-6.18508997581974
 30
0.0
 10
13.95489568045486
 20
-6.188023678488611
 30
0.0
 10
13.95396322418487
 20
-6.190376699906336
 30
0.0
 10
13.95313428065972
 20
-6.19279368041839
 30
0.0
 10
13.95260998439959
 20
-6.195357935160801
 30
0.0
 10
13.95162030157154
 20
-6.20021630162882
 30
0.0
 10
13.93901446901931
 20
-6.263500459200359
 30
0.0
 10
13.93329517947889
 20
-6.357959625855655
 30
0.0
 10
13.71132009320399
 20
-6.291926068794939
 30
0.0
 10
13.55635814801346
 20
-5.824481027883179
 30
0.0
 10
13.49954648247472
 20
-5.587103581813153
 30
0.0
 10
13.51592674315947
 20
-5.588620085602391
 30
0.0
 10
13.53206042470427
 20
-5.590268715415454
 30
0.0
 10
13.54788777584988
 20
-5.592073876696228
 30
0.0
  0
SPLINE
  5
5D
330
41
100
AcDbEntity
  8
Layer 2
 62
     7
420
 16777215
370
     9
100
AcDbSpline
210
0.0
220
0.0
230
1.0
 70
    11
 71
     3
 72
    26
 73
    22
 74
     0
 42
0.0000000001
 43
0.0000000001
 12
1.0
 22
0.0
 32
0.0
 13
1.0
 23
0.0
 33
0.0
 40
0.0
 40
0.0
 40
0.0
 40
0.0
 40
1.0
 40
1.0
 40
1.0
 40
2.0
 40
2.0
 40
2.0
 40
3.0
 40
3.0
 40
3.0
 40
4.0
 40
4.0
 40
4.0
 40
5.0
 40
5.0
 40
5.0
 40
6.0
 40
6.0
 40
6.0
 40
7.0
 40
7.0
 40
7.0
 40
7.0
 10
14.77968607235819
 20
-8.165612786598306
 30
0.0
 10
14.75492885345029
 20
-8.161764300567103
 30
0.0
 10
14.73045103479654
 20
-8.157712996881502
 30
0.0
 10
14.70629637788251
 20
-8.153430262262468
 30
0.0
 10
14.70363365979751
 20
-8.147561173790665
 30
0.0
 10
14.70221646091793
 20
-8.141175363162018
 30
0.0
 10
14.70221646091793
 20
-8.134605249353651
 30
0.0
 10
14.70221646091793
 20
-8.111159191879475
 30
0.0
 10
14.72004590002944
 20
-8.092011858797907
 30
0.0
 10
14.74281870387904
 20
-8.089452653457682
 30
0.0
 10
14.75499281254459
 20
-8.093642815703333
 30
0.0
 10
14.7681465052339
 20
-8.095861186396153
 30
0.0
 10
14.78207948899348
 20
-8.09591757138719
 30
0.0
 10
14.78260630995459
 20
-8.095923462356419
 30
0.0
 10
14.78312303211139
 20
-8.095877176169727
 30
0.0
 10
14.78364816993861
 20
-8.095864552664276
 30
0.0
 10
14.78102753020514
 20
-8.11662853601173
 30
0.0
 10
14.77952112522027
 20
-8.137717364233039
 30
0.0
 10
14.77952112522027
 20
-8.159148710235815
 30
0.0
 10
14.77952112522027
 20
-8.161298913999138
 30
0.0
 10
14.7796591422132
 20
-8.163458374999815
 30
0.0
 10
14.77968607235819
 20
-8.165612786598306
 30
0.0
  0
SPLINE
  5
5E
330
41
100
AcDbEntity
  8
Layer 2
 62
     7
420
 16777215
370
     9
100
AcDbSpline
210
0.0
220
0.0
230
1.0
 70
    11
 71
     3
 72
    23
 73
    19
 74
     0
 42
0.0000000001
 43
0.0000000001
 12
1.0
 22
0.0
 32
0.0
 13
1.0
 23
0.0
 33
0.0
 40
0.0
 40
0.0
 40
0.0
 40
0.0
 40
1.0
 40
1.0
 40
1.0
 40
2.0
 40
2.0
 40
2.0
 40
3.0
 40
3.0
 40
3.0
 40
4.0
 40
4.0
 40
4.0
 40
5.0
 40
5.0
 40
5.0
 40
6.0
 40
6.0
 40
6.0
 40
6.0
 10
14.80124365341554
 20
-8.0132066804799
 30
0.0
 10
14.80058386486361
 20
-8.012891092843422
 30
0.0
 10
14.79997793660153
 20
-8.012492190070866
 30
0.0
 10
14.79930131670888
 20
-8.012209423548585
 30
0.0
 10
14.78833401516527
 20
-8.007596794653535
 30
0.0
 10
14.77688870354834
 20
-8.004636161839674
 30
0.0
 10
14.76515725914098
 20
-8.003112083947144
 30
0.0
 10
14.75415124551389
 20
-7.995840944802239
 30
0.0
 10
14.74212525264584
 20
-7.979389992486908
 30
0.0
 10
14.74212525264584
 20
-7.941985704242218
 30
0.0
 10
14.74212525264584
 20
-7.908970188062413
 30
0.0
 10
14.7689863891304
 20
-7.882109051577824
 30
0.0
 10
14.80200106374319
 20
-7.882109051577824
 30
0.0
 10
14.82037415515651
 20
-7.882109051577824
 30
0.0
 10
14.83717014995444
 20
-7.890301706621281
 30
0.0
 10
14.84861041216931
 20
-7.904544387048165
 30
0.0
 10
14.82876457845221
 20
-7.938610178882249
 30
0.0
 10
14.81281688322125
 20
-7.975012160793413
 30
0.0
 10
14.80124365341554
 20
-8.0132066804799
 30
0.0
  0
SPLINE
  5
5F
330
41
100
AcDbEntity
  8
Layer 2
 62
     7
420
 16777215
370
     9
100
AcDbSpline
210
0.0
220
0.0
230
1.0
 70
    11
 71
     3
 72
    32
 73
    28
 74
     0
 42
0.0000000001
 43
0.0000000001
 12
1.0
 22
0.0
 32
0.0
 13
1.0
 23
0.0
 33
0.0
 40
0.0
 40
0.0
 40
0.0
 40
0.0
 40
1.0
 40
1.0
 40
1.0
 40
2.0
 40
2.0
 40
2.0
 40
3.0
 40
3.0
 40
3.0
 40
4.0
 40
4.0
 40
4.0
 40
5.0
 40
5.0
 40
5.0
 40
6.0
 40
6.0
 40
6.0
 40
7.0
 40
7.0
 40
7.0
 40
8.0
 40
8.0
 40
8.0
 40
9.0
 40
9.0
 40
9.0
 40
9.0
 10
15.61806861337388
 20
-8.197114323689952
 30
0.0
 10
15.57814803970751
 20
-8.200662370291209
 30
0.0
 10
15.53771242701833
 20
-8.203831711728677
 30
0.0
 10
15.4964672268457
 20
-8.206408589976565
 30
0.0
 10
15.4964672268457
 20
-8.206408589976565
 30
0.0
 10
15.16173057413279
 20
-8.206408589976565
 30
0.0
 10
15.16173057413279
 20
-8.206408589976565
 30
0.0
 10
15.12048705709417
 20
-8.203831711728677
 30
0.0
 10
15.08005144440499
 20
-8.200662370291209
 30
0.0
 10
15.04013087073862
 20
-8.197114323689952
 30
0.0
 10
15.0398211740714
 20
-8.19164666269176
 30
0.0
 10
15.03951484367222
 20
-8.186173110724338
 30
0.0
 10
15.03951484367222
 20
-8.180695350921798
 30
0.0
 10
15.03951484367222
 20
-8.023122023235146
 30
0.0
 10
15.1677141157207
 20
-7.894917701784455
 30
0.0
 10
15.3252941759436
 20
-7.894917701784455
 30
0.0
 10
15.32659692170708
 20
-7.894917701784455
 30
0.0
 10
15.32782560957179
 20
-7.894645875633538
 30
0.0
 10
15.32910142519027
 20
-7.894533947218481
 30
0.0
 10
15.33037724080875
 20
-7.894645875633538
 30
0.0
 10
15.33160592867347
 20
-7.894917701784455
 30
0.0
 10
15.33290867443707
 20
-7.894917701784455
 30
0.0
 10
15.49048705152583
 20
-7.894917701784455
 30
0.0
 10
15.61868632357431
 20
-8.023122023235146
 30
0.0
 10
15.61868632357431
 20
-8.180695350921798
 30
0.0
 10
15.61868632357431
 20
-8.186170586023257
 30
0.0
 10
15.61837999317514
 20
-8.19164413799068
 30
0.0
 10
15.61806861337388
 20
-8.197114323689952
 30
0.0
  0
SPLINE
  5
60
330
41
100
AcDbEntity
  8
Layer 2
 62
     7
420
 16777215
370
     9
100
AcDbSpline
210
0.0
220
0.0
230
1.0
 70
    11
 71
     3
 72
    47
 73
    43
 74
     0
 42
0.0000000001
 43
0.0000000001
 12
1.0
 22
0.0
 32
0.0
 13
1.0
 23
0.0
 33
0.0
 40
0.0
 40
0.0
 40
0.0
 40
0.0
 40
1.0
 40
1.0
 40
1.0
 40
2.0
 40
2.0
 40
2.0
 40
3.0
 40
3.0
 40
3.0
 40
4.0
 40
4.0
 40
4.0
 40
5.0
 40
5.0
 40
5.0
 40
6.0
 40
6.0
 40
6.0
 40
7.0
 40
7.0
 40
7.0
 40
8.0
 40
8.0
 40
8.0
 40
9.0
 40
9.0
 40
9.0
 40
10.0
 40
10.0
 40
10.0
 40
11.0
 40
11.0
 40
11.0
 40
12.0
 40
12.0
 40
12.0
 40
13.0
 40
13.0
 40
13.0
 40
14.0
 40
14.0
 40
14.0
 40
14.0
 10
15.79110994308404
 20
-8.178179907067134
 30
0.0
 10
15.76290229935042
 20
-8.1818844851361
 30
0.0
 10
15.7344102059604
 20
-8.185381196148505
 30
0.0
 10
15.70546871577598
 20
-8.18854969601893
 30
0.0
 10
15.7055242592
 20
-8.185930739419518
 30
0.0
 10
15.70576326423667
 20
-8.183311782820105
 30
0.0
 10
15.70576326423667
 20
-8.180695350921798
 30
0.0
 10
15.70576326423667
 20
-7.975097159063529
 30
0.0
 10
15.53850181689305
 20
-7.807839919555085
 30
0.0
 10
15.33290867443707
 20
-7.807839919555085
 30
0.0
 10
15.33160592867347
 20
-7.807839919555085
 30
0.0
 10
15.33037724080875
 20
-7.808111745705976
 30
0.0
 10
15.32910142519027
 20
-7.808223674121058
 30
0.0
 10
15.32782560957179
 20
-7.808111745705976
 30
0.0
 10
15.32659692170708
 20
-7.807839919555085
 30
0.0
 10
15.3252941759436
 20
-7.807839919555085
 30
0.0
 10
15.11969935035348
 20
-7.807839919555085
 30
0.0
 10
14.95243790300987
 20
-7.975097159063529
 30
0.0
 10
14.95243790300987
 20
-8.180695350921798
 30
0.0
 10
14.95243790300987
 20
-8.183314307521186
 30
0.0
 10
14.95267859118055
 20
-8.1859298978525
 30
0.0
 10
14.95273245147056
 20
-8.18854969601893
 30
0.0
 10
14.92378927815207
 20
-8.185381196148505
 30
0.0
 10
14.89529550162804
 20
-8.181883643569083
 30
0.0
 10
14.86708785789445
 20
-8.178179065500116
 30
0.0
 10
14.86680172510402
 20
-8.171832808521913
 30
0.0
 10
14.86659806588265
 20
-8.165477294306356
 30
0.0
 10
14.86659806588265
 20
-8.159148710235815
 30
0.0
 10
14.86659806588265
 20
-7.918654099884204
 30
0.0
 10
15.07192022375486
 20
-7.722994814658023
 30
0.0
 10
15.32429944371334
 20
-7.722994814658023
 30
0.0
 10
15.32594386569124
 20
-7.722994814658023
 30
0.0
 10
15.32750244783208
 20
-7.72268764269183
 30
0.0
 10
15.32909805892223
 20
-7.722510072048382
 30
0.0
 10
15.33069367001235
 20
-7.72268764269183
 30
0.0
 10
15.33225225215306
 20
-7.722994814658023
 30
0.0
 10
15.33389835726499
 20
-7.722994814658023
 30
0.0
 10
15.5862775772236
 20
-7.722994814658023
 30
0.0
 10
15.79159973509584
 20
-7.918654099884204
 30
0.0
 10
15.79159973509584
 20
-8.159148710235815
 30
0.0
 10
15.79159973509584
 20
-8.165477294306356
 30
0.0
 10
15.79139607587445
 20
-8.171833650088931
 30
0.0
 10
15.79110994308404
 20
-8.178179907067134
 30
0.0
  0
SPLINE
  5
61
330
41
100
AcDbEntity
  8
Layer 2
 62
     7
420
 16777215
370
     9
100
AcDbSpline
210
0.0
220
0.0
230
1.0
 70
    11
 71
     3
 72
    20
 73
    16
 74
     0
 42
0.0000000001
 43
0.0000000001
 12
1.0
 22
0.0
 32
0.0
 13
1.0
 23
0.0
 33
0.0
 40
0.0
 40
0.0
 40
0.0
 40
0.0
 40
1.0
 40
1.0
 40
1.0
 40
2.0
 40
2.0
 40
2.0
 40
3.0
 40
3.0
 40
3.0
 40
4.0
 40
4.0
 40
4.0
 40
5.0
 40
5.0
 40
5.0
 40
5.0
 10
14.89040263091179
 20
-7.775813244636285
 30
0.0
 10
14.89040263091179
 20
-7.74279772845648
 30
0.0
 10
14.91726545053042
 20
-7.715936591971891
 30
0.0
 10
14.95028012514321
 20
-7.715936591971891
 30
0.0
 10
14.96955369327945
 20
-7.715936591971891
 30
0.0
 10
14.98713907795208
 20
-7.72520056184539
 30
0.0
 10
14.99827132663361
 20
-7.740215800806431
 30
0.0
 10
14.9657077319493
 20
-7.763651759476235
 30
0.0
 10
14.93605259292291
 20
-7.790585270725463
 30
0.0
 10
14.90969134725459
 20
-7.82029342847477
 30
0.0
 10
14.90907700332208
 20
-7.819595769406355
 30
0.0
 10
14.90860740891902
 20
-7.818818161470037
 30
0.0
 10
14.90794257096485
 20
-7.818150798814713
 30
0.0
 10
14.89663191007278
 20
-7.806840979489682
 30
0.0
 10
14.89040263091179
 20
-7.791799651950694
 30
0.0
 10
14.89040263091179
 20
-7.775813244636285
 30
0.0
  0
SPLINE
  5
62
330
41
100
AcDbEntity
  8
Layer 2
 62
     7
420
 16777215
370
     9
100
AcDbSpline
210
0.0
220
0.0
230
1.0
 70
    11
 71
     3
 72
    23
 73
    19
 74
     0
 42
0.0000000001
 43
0.0000000001
 12
1.0
 22
0.0
 32
0.0
 13
1.0
 23
0.0
 33
0.0
 40
0.0
 40
0.0
 40
0.0
 40
0.0
 40
1.0
 40
1.0
 40
1.0
 40
2.0
 40
2.0
 40
2.0
 40
3.0
 40
3.0
 40
3.0
 40
4.0
 40
4.0
 40
4.0
 40
5.0
 40
5.0
 40
5.0
 40
6.0
 40
6.0
 40
6.0
 40
6.0
 10
15.14666315801583
 20
-7.664628774813663
 30
0.0
 10
15.15956942999805
 20
-7.575022083657156
 30
0.0
 10
15.23620589007793
 20
-7.505811611055706
 30
0.0
 10
15.32910142519027
 20
-7.5048261360628
 30
0.0
 10
15.42199696030265
 20
-7.505811611055706
 30
0.0
 10
15.49863342038265
 20
-7.575023766791219
 30
0.0
 10
15.51153800923084
 20
-7.664631299514768
 30
0.0
 10
15.45581785613083
 20
-7.646114300139161
 30
0.0
 10
15.39609016083083
 20
-7.635916190861608
 30
0.0
 10
15.33389835726499
 20
-7.635916190861608
 30
0.0
 10
15.33225225215306
 20
-7.635916190861608
 30
0.0
 10
15.33069367001235
 20
-7.636223362827801
 30
0.0
 10
15.32909805892223
 20
-7.636400933471274
 30
0.0
 10
15.32750244783208
 20
-7.636223362827801
 30
0.0
 10
15.32594386569124
 20
-7.635916190861608
 30
0.0
 10
15.32429944371334
 20
-7.635916190861608
 30
0.0
 10
15.26210764014763
 20
-7.635916190861608
 30
0.0
 10
15.20238162798167
 20
-7.6461126170051
 30
0.0
 10
15.14666315801583
 20
-7.664628774813663
 30
0.0
  0
SPLINE
  5
63
330
41
100
AcDbEntity
  8
Layer 2
 62
     7
420
 16777215
370
     9
100
AcDbSpline
210
0.0
220
0.0
230
1.0
 70
    11
 71
     3
 72
    20
 73
    16
 74
     0
 42
0.0000000001
 43
0.0000000001
 12
1.0
 22
0.0
 32
0.0
 13
1.0
 23
0.0
 33
0.0
 40
0.0
 40
0.0
 40
0.0
 40
0.0
 40
1.0
 40
1.0
 40
1.0
 40
2.0
 40
2.0
 40
2.0
 40
3.0
 40
3.0
 40
3.0
 40
4.0
 40
4.0
 40
4.0
 40
5.0
 40
5.0
 40
5.0
 40
5.0
 10
15.65992647434486
 20
-7.740216642373449
 30
0.0
 10
15.67106040616042
 20
-7.725201403412433
 30
0.0
 10
15.68864242456501
 20
-7.715936591971891
 30
0.0
 10
15.70791767583513
 20
-7.715936591971891
 30
0.0
 10
15.74093235044792
 20
-7.715936591971891
 30
0.0
 10
15.76779348693251
 20
-7.74279772845648
 30
0.0
 10
15.76779348693251
 20
-7.775813244636285
 30
0.0
 10
15.76779348693251
 20
-7.791799651950694
 30
0.0
 10
15.76156420777167
 20
-7.806840979489682
 30
0.0
 10
15.75025523001361
 20
-7.818150798814713
 30
0.0
 10
15.74958870892528
 20
-7.818817319902993
 30
0.0
 10
15.74911911452222
 20
-7.819594927839337
 30
0.0
 10
15.74850477058986
 20
-7.820292586907751
 30
0.0
 10
15.72214352492139
 20
-7.790585270725463
 30
0.0
 10
15.69249006902916
 20
-7.763652601043254
 30
0.0
 10
15.65992647434486
 20
-7.740216642373449
 30
0.0
  0
SPLINE
  5
64
330
41
100
AcDbEntity
  8
Layer 2
 62
     7
420
 16777215
370
     9
100
AcDbSpline
210
0.0
220
0.0
230
1.0
 70
    11
 71
     3
 72
    23
 73
    19
 74
     0
 42
0.0000000001
 43
0.0000000001
 12
1.0
 22
0.0
 32
0.0
 13
1.0
 23
0.0
 33
0.0
 40
0.0
 40
0.0
 40
0.0
 40
0.0
 40
1.0
 40
1.0
 40
1.0
 40
2.0
 40
2.0
 40
2.0
 40
3.0
 40
3.0
 40
3.0
 40
4.0
 40
4.0
 40
4.0
 40
5.0
 40
5.0
 40
5.0
 40
6.0
 40
6.0
 40
6.0
 40
6.0
 10
15.85695246442876
 20
-8.0132066804799
 30
0.0
 10
15.8453792346232
 20
-7.975010477659351
 30
0.0
 10
15.82943153939209
 20
-7.938609337315206
 30
0.0
 10
15.80958570567514
 20
-7.904541862347084
 30
0.0
 10
15.82102428475582
 20
-7.890294974085034
 30
0.0
 10
15.83781859641971
 20
-7.882109051577824
 30
0.0
 10
15.85619505410111
 20
-7.882109051577824
 30
0.0
 10
15.88921477811611
 20
-7.882109051577824
 30
0.0
 10
15.91607759773473
 20
-7.908970188062413
 30
0.0
 10
15.91607759773473
 20
-7.941985704242218
 30
0.0
 10
15.91607759773473
 20
-7.979392517188014
 30
0.0
 10
15.90404823859848
 20
-7.995842627936301
 30
0.0
 10
15.89303885870347
 20
-8.003113767081206
 30
0.0
 10
15.88132256250265
 20
-8.004636161839674
 30
0.0
 10
15.86988734968999
 20
-8.00759426995243
 30
0.0
 10
15.85892846381681
 20
-8.012200166311231
 30
0.0
 10
15.8582400619857
 20
-8.012486299101662
 30
0.0
 10
15.85762235178514
 20
-8.012886885008255
 30
0.0
 10
15.85695246442876
 20
-8.0132066804799
 30
0.0
  0
SPLINE
  5
65
330
41
100
AcDbEntity
  8
Layer 2
 62
     7
420
 16777215
370
     9
100
AcDbSpline
210
0.0
220
0.0
230
1.0
 70
    11
 71
     3
 72
    26
 73
    22
 74
     0
 42
0.0000000001
 43
0.0000000001
 12
1.0
 22
0.0
 32
0.0
 13
1.0
 23
0.0
 33
0.0
 40
0.0
 40
0.0
 40
0.0
 40
0.0
 40
1.0
 40
1.0
 40
1.0
 40
2.0
 40
2.0
 40
2.0
 40
3.0
 40
3.0
 40
3.0
 40
4.0
 40
4.0
 40
4.0
 40
5.0
 40
5.0
 40
5.0
 40
6.0
 40
6.0
 40
6.0
 40
7.0
 40
7.0
 40
7.0
 40
7.0
 10
15.95190142309583
 20
-8.153430262262468
 30
0.0
 10
15.92774508304779
 20
-8.157712996881502
 30
0.0
 10
15.9032689475282
 20
-8.161764300567103
 30
0.0
 10
15.87851004548611
 20
-8.165612786598306
 30
0.0
 10
15.8785369756311
 20
-8.163459216566858
 30
0.0
 10
15.87867667575819
 20
-8.161298913999138
 30
0.0
 10
15.87867667575819
 20
-8.159148710235815
 30
0.0
 10
15.87867667575819
 20
-8.137713997964914
 30
0.0
 10
15.87717027077333
 20
-8.116623486609544
 30
0.0
 10
15.87454794790584
 20
-8.095856978560985
 30
0.0
 10
15.87502427484515
 20
-8.095868760499418
 30
0.0
 10
15.87549050298013
 20
-8.095929353325623
 30
0.0
 10
15.87596851305347
 20
-8.095925145490481
 30
0.0
 10
15.88995872337126
 20
-8.095884750272994
 30
0.0
 10
15.90316122694819
 20
-8.093657963909866
 30
0.0
 10
15.91538078023334
 20
-8.089452653457682
 30
0.0
 10
15.93815695035111
 20
-8.092010175663846
 30
0.0
 10
15.95598470632861
 20
-8.111158350312431
 30
0.0
 10
15.95598470632861
 20
-8.134605249353651
 30
0.0
 10
15.95598470632861
 20
-8.141166105924665
 30
0.0
 10
15.95456582431499
 20
-8.147556124388478
 30
0.0
 10
15.95190142309583
 20
-8.153430262262468
 30
0.0
  0
SPLINE
  5
66
330
41
100
AcDbEntity
  8
Layer 2
 62
     7
420
 16777215
370
     9
100
AcDbSpline
210
0.0
220
0.0
230
1.0
 70
    11
 71
     3
 72
   293
 73
   289
 74
     0
 42
0.0000000001
 43
0.0000000001
 12
1.0
 22
0.0
 32
0.0
 13
1.0
 23
0.0
 33
0.0
 40
0.0
 40
0.0
 40
0.0
 40
0.0
 40
1.0
 40
1.0
 40
1.0
 40
2.0
 40
2.0
 40
2.0
 40
3.0
 40
3.0
 40
3.0
 40
4.0
 40
4.0
 40
4.0
 40
5.0
 40
5.0
 40
5.0
 40
6.0
 40
6.0
 40
6.0
 40
7.0
 40
7.0
 40
7.0
 40
8.0
 40
8.0
 40
8.0
 40
9.0
 40
9.0
 40
9.0
 40
10.0
 40
10.0
 40
10.0
 40
11.0
 40
11.0
 40
11.0
 40
12.0
 40
12.0
 40
12.0
 40
13.0
 40
13.0
 40
13.0
 40
14.0
 40
14.0
 40
14.0
 40
15.0
 40
15.0
 40
15.0
 40
16.0
 40
16.0
 40
16.0
 40
17.0
 40
17.0
 40
17.0
 40
18.0
 40
18.0
 40
18.0
 40
19.0
 40
19.0
 40
19.0
 40
20.0
 40
20.0
 40
20.0
 40
21.0
 40
21.0
 40
21.0
 40
22.0
 40
22.0
 40
22.0
 40
23.0
 40
23.0
 40
23.0
 40
24.0
 40
24.0
 40
24.0
 40
25.0
 40
25.0
 40
25.0
 40
26.0
 40
26.0
 40
26.0
 40
27.0
 40
27.0
 40
27.0
 40
28.0
 40
28.0
 40
28.0
 40
29.0
 40
29.0
 40
29.0
 40
30.0
 40
30.0
 40
30.0
 40
31.0
 40
31.0
 40
31.0
 40
32.0
 40
32.0
 40
32.0
 40
33.0
 40
33.0
 40
33.0
 40
34.0
 40
34.0
 40
34.0
 40
35.0
 40
35.0
 40
35.0
 40
36.0
 40
36.0
 40
36.0
 40
37.0
 40
37.0
 40
37.0
 40
38.0
 40
38.0
 40
38.0
 40
39.0
 40
39.0
 40
39.0
 40
40.0
 40
40.0
 40
40.0
 40
41.0
 40
41.0
 40
41.0
 40
42.0
 40
42.0
 40
42.0
 40
43.0
 40
43.0
 40
43.0
 40
44.0
 40
44.0
 40
44.0
 40
45.0
 40
45.0
 40
45.0
 40
46.0
 40
46.0
 40
46.0
 40
47.0
 40
47.0
 40
47.0
 40
48.0
 40
48.0
 40
48.0
 40
49.0
 40
49.0
 40
49.0
 40
50.0
 40
50.0
 40
50.0
 40
51.0
 40
51.0
 40
51.0
 40
52.0
 40
52.0
 40
52.0
 40
53.0
 40
53.0
 40
53.0
 40
54.0
 40
54.0
 40
54.0
 40
55.0
 40
55.0
 40
55.0
 40
56.0
 40
56.0
 40
56.0
 40
57.0
 40
57.0
 40
57.0
 40
58.0
 40
58.0
 40
58.0
 40
59.0
 40
59.0
 40
59.0
 40
60.0
 40
60.0
 40
60.0
 40
61.0
 40
61.0
 40
61.0
 40
62.0
 40
62.0
 40
62.0
 40
63.0
 40
63.0
 40
63.0
 40
64.0
 40
64.0
 40
64.0
 40
65.0
 40
65.0
 40
65.0
 40
66.0
 40
66.0
 40
66.0
 40
67.0
 40
67.0
 40
67.0
 40
68.0
 40
68.0
 40
68.0
 40
69.0
 40
69.0
 40
69.0
 40
70.0
 40
70.0
 40
70.0
 40
71.0
 40
71.0
 40
71.0
 40
72.0
 40
72.0
 40
72.0
 40
73.0
 40
73.0
 40
73.0
 40
74.0
 40
74.0
 40
74.0
 40
75.0
 40
75.0
 40
75.0
 40
76.0
 40
76.0
 40
76.0
 40
77.0
 40
77.0
 40
77.0
 40
78.0
 40
78.0
 40
78.0
 40
79.0
 40
79.0
 40
79.0
 40
80.0
 40
80.0
 40
80.0
 40
81.0
 40
81.0
 40
81.0
 40
82.0
 40
82.0
 40
82.0
 40
83.0
 40
83.0
 40
83.0
 40
84.0
 40
84.0
 40
84.0
 40
85.0
 40
85.0
 40
85.0
 40
86.0
 40
86.0
 40
86.0
 40
87.0
 40
87.0
 40
87.0
 40
88.0
 40
88.0
 40
88.0
 40
89.0
 40
89.0
 40
89.0
 40
90.0
 40
90.0
 40
90.0
 40
91.0
 40
91.0
 40
91.0
 40
92.0
 40
92.0
 40
92.0
 40
93.0
 40
93.0
 40
93.0
 40
94.0
 40
94.0
 40
94.0
 40
95.0
 40
95.0
 40
95.0
 40
96.0
 40
96.0
 40
96.0
 40
96.0
 10
17.41699556557556
 20
-5.797619049831559
 30
0.0
 10
17.41534777732959
 20
-5.797619049831559
 30
0.0
 10
17.41536965807235
 20
-5.797608109460157
 30
0.0
 10
17.41508184214791
 20
-5.797608109460157
 30
0.0
 10
17.39835653898055
 20
-5.797608109460157
 30
0.0
 10
17.38307704797181
 20
-5.807196082640467
 30
0.0
 10
17.3758261064357
 20
-5.822290428902369
 30
0.0
 10
17.36877377471875
 20
-5.836958942246775
 30
0.0
 10
17.20435514080471
 20
-6.187343692327835
 30
0.0
 10
17.3133717339564
 20
-6.681185324723274
 30
0.0
 10
17.33036465543945
 20
-6.758154203780375
 30
0.0
 10
17.40036620104971
 20
-7.16171841609586
 30
0.0
 10
17.10904430831445
 20
-7.54836039855882
 30
0.0
 10
16.89088657009057
 20
-7.837898169189152
 30
0.0
 10
16.53338721233235
 20
-8.03459847283226
 30
0.0
 10
16.04301283610319
 20
-8.136023289800303
 30
0.0
 10
16.04301620237139
 20
-8.135549487562052
 30
0.0
 10
16.04306333012513
 20
-8.135079893158945
 30
0.0
 10
16.04306333012513
 20
-8.134605249353651
 30
0.0
 10
16.04306333012513
 20
-8.089182510440827
 30
0.0
 10
16.02010538152874
 20
-8.049047337181642
 30
0.0
 10
15.98520896303542
 20
-8.02510643829343
 30
0.0
 10
15.99667278912693
 20
-8.001688994098306
 30
0.0
 10
16.00315453839708
 20
-7.973552883562256
 30
0.0
 10
16.00315453839708
 20
-7.941985704242218
 30
0.0
 10
16.00315453839708
 20
-7.860956264262186
 30
0.0
 10
15.93722954348333
 20
-7.795031269348429
 30
0.0
 10
15.85619505410111
 20
-7.795031269348429
 30
0.0
 10
15.85527437976958
 20
-7.795031269348429
 30
0.0
 10
15.85437221991277
 20
-7.795178543578786
 30
0.0
 10
15.85345491184931
 20
-7.795195374919406
 30
0.0
 10
15.85429142947777
 20
-7.788808722723742
 30
0.0
 10
15.85487211072889
 20
-7.78236231926889
 30
0.0
 10
15.85487211072889
 20
-7.775813244636285
 30
0.0
 10
15.85487211072889
 20
-7.694782963089235
 30
0.0
 10
15.78894711581526
 20
-7.628858809742496
 30
0.0
 10
15.70791767583513
 20
-7.628858809742496
 30
0.0
 10
15.66621634633194
 20
-7.628858809742496
 30
0.0
 10
15.62757158828403
 20
-7.646400432929592
 30
0.0
 10
15.60027788634569
 20
-7.67579721087754
 30
0.0
 10
15.59232002850376
 20
-7.533851782950251
 30
0.0
 10
15.47567547178624
 20
-7.420531416003818
 30
0.0
 10
15.33242056555916
 20
-7.417782858081686
 30
0.0
 10
15.33196611936263
 20
-7.417768551442173
 30
0.0
 10
15.33154196957917
 20
-7.417648207356781
 30
0.0
 10
15.33108584024861
 20
-7.417648207356781
 30
0.0
 10
15.33042100229432
 20
-7.417648207356781
 30
0.0
 10
15.3297645800104
 20
-7.417693651976428
 30
0.0
 10
15.32910142519027
 20
-7.417698701378614
 30
0.0
 10
15.32843658723611
 20
-7.417693651976428
 30
0.0
 10
15.32778184808626
 20
-7.417648207356781
 30
0.0
 10
15.3271153269979
 20
-7.417648207356781
 30
0.0
 10
15.32665919766737
 20
-7.417648207356781
 30
0.0
 10
15.32623504788388
 20
-7.417768551442173
 30
0.0
 10
15.32578228482139
 20
-7.417782858081686
 30
0.0
 10
15.18252401232626
 20
-7.420531416003818
 30
0.0
 10
15.06587945560876
 20
-7.533854307651356
 30
0.0
 10
15.05792159776681
 20
-7.675802260279725
 30
0.0
 10
15.03062957896251
 20
-7.646402116063629
 30
0.0
 10
14.99198313778056
 20
-7.628858809742496
 30
0.0
 10
14.95028012514321
 20
-7.628858809742496
 30
0.0
 10
14.8692506851632
 20
-7.628858809742496
 30
0.0
 10
14.80332569024944
 20
-7.694782963089235
 30
0.0
 10
14.80332569024944
 20
-7.775813244636285
 30
0.0
 10
14.80332569024944
 20
-7.78236231926889
 30
0.0
 10
14.80390637150069
 20
-7.788808722723742
 30
0.0
 10
14.80474457226319
 20
-7.795195374919406
 30
0.0
 10
14.80382558106569
 20
-7.795178543578786
 30
0.0
 10
14.80292342120876
 20
-7.795031269348429
 30
0.0
 10
14.80200106374319
 20
-7.795031269348429
 30
0.0
 10
14.72097162376319
 20
-7.795031269348429
 30
0.0
 10
14.65504662884945
 20
-7.860956264262186
 30
0.0
 10
14.65504662884945
 20
-7.941985704242218
 30
0.0
 10
14.65504662884945
 20
-7.973552883562256
 30
0.0
 10
14.66153006125362
 20
-8.001688994098306
 30
0.0
 10
14.67299220421124
 20
-8.02510643829343
 30
0.0
 10
14.63809746885194
 20
-8.049047337181642
 30
0.0
 10
14.61513952025555
 20
-8.089182510440827
 30
0.0
 10
14.61513952025555
 20
-8.134605249353651
 30
0.0
 10
14.61513952025555
 20
-8.135079893158945
 30
0.0
 10
14.61518496487527
 20
-8.135550329129071
 30
0.0
 10
14.61519001427736
 20
-8.136024131367346
 30
0.0
 10
14.1248156380482
 20
-8.034599314399276
 30
0.0
 10
13.76731628028998
 20
-7.837899010756169
 30
0.0
 10
13.54915770049916
 20
-7.54836039855882
 30
0.0
 10
13.25783664933088
 20
-7.16171841609586
 30
0.0
 10
13.32783819494115
 20
-6.758154203780375
 30
0.0
 10
13.34482943329016
 20
-6.681185324723274
 30
0.0
 10
13.45384181860663
 20
-6.187343692327835
 30
0.0
 10
13.28942318469262
 20
-5.836958942246775
 30
0.0
 10
13.28237001140865
 20
-5.822290428902369
 30
0.0
 10
13.27512075300653
 20
-5.807196082640467
 30
0.0
 10
13.25984042043087
 20
-5.797608109460157
 30
0.0
 10
13.24311511726354
 20
-5.797608109460157
 30
0.0
 10
13.24297120930128
 20
-5.797608109460157
 30
0.0
 10
13.24282225193686
 20
-5.797608109460157
 30
0.0
 10
13.24267413613946
 20
-5.797608109460157
 30
0.0
 10
13.23652480584643
 20
-5.797528160592251
 30
0.0
 10
12.66437367811406
 20
-5.799928309763686
 30
0.0
 10
12.5621359073944
 20
-5.520656815340392
 30
0.0
 10
12.71995665578803
 20
-5.555723230373915
 30
0.0
 10
12.92199081127147
 20
-5.562048448176344
 30
0.0
 10
13.13072215718486
 20
-5.56852430647728
 30
0.0
 10
13.17031620284337
 20
-5.569752152775019
 30
0.0
 10
13.21026623135579
 20
-5.571019552723176
 30
0.0
 10
13.25008665854552
 20
-5.572483879356532
 30
0.0
 10
13.26765100404241
 20
-5.671564932144204
 30
0.0
 10
13.33710889735089
 20
-6.012731998538457
 30
0.0
 10
13.48469450751766
 20
-6.172026330802812
 30
0.0
 10
13.49327260026116
 20
-6.181284409707081
 30
0.0
 10
13.50493840244017
 20
-6.185971938067874
 30
0.0
 10
13.51664123356851
 20
-6.185971938067874
 30
0.0
 10
13.52722898838126
 20
-6.185971938067874
 30
0.0
 10
13.53784199020487
 20
-6.182135233975083
 30
0.0
 10
13.54622399783026
 20
-6.17437514438537
 30
0.0
 10
13.56385819339069
 20
-6.158026863247793
 30
0.0
 10
13.56491099374605
 20
-6.130485740602404
 30
0.0
 10
13.54856776201066
 20
-6.112840604670585
 30
0.0
 10
13.42622747962959
 20
-5.980800420694158
 30
0.0
 10
13.3606416362292
 20
-5.687441935744636
 30
0.0
 10
13.33943414705658
 20
-5.576250733385765
 30
0.0
 10
13.36275901887833
 20
-5.577390215145278
 30
0.0
 10
13.38582637118871
 20
-5.578699693444984
 30
0.0
 10
13.40865892629755
 20
-5.580153921273955
 30
0.0
 10
13.44417053029029
 20
-5.73516804362037
 30
0.0
 10
13.60967646880792
 20
-6.377094335431744
 30
0.0
 10
13.92868844155305
 20
-6.446695295135441
 30
0.0
 10
13.92930531018651
 20
-6.446829945860347
 30
0.0
 10
13.92991208001568
 20
-6.446787867508798
 30
0.0
 10
13.93052810708208
 20
-6.446894746521694
 30
0.0
 10
13.9304094461307
 20
-6.513730316962614
 30
0.0
 10
13.93476960491666
 20
-6.589112842166919
 30
0.0
 10
13.94778443904569
 20
-6.667068879350987
 30
0.0
 10
13.94799062296834
 20
-6.668301775050899
 30
0.0
 10
13.94841056491653
 20
-6.669436207408226
 30
0.0
 10
13.94871437061473
 20
-6.670626183189571
 30
0.0
 10
13.94866051032472
 20
-6.671063798045528
 30
0.0
 10
13.94850566199097
 20
-6.671462700818059
 30
0.0
 10
13.94846442520651
 20
-6.671905365076175
 30
0.0
 10
13.94479182668472
 20
-6.711458173950152
 30
0.0
 10
13.95674544478819
 20
-6.750076001853055
 30
0.0
 10
13.98211784919555
 20
-6.780635825437407
 30
0.0
 10
14.00748604576776
 20
-6.811195649021758
 30
0.0
 10
14.04323833793124
 20
-6.830042542673381
 30
0.0
 10
14.08278609740306
 20
-6.833709250225966
 30
0.0
 10
14.08735664794654
 20
-6.834135083143464
 30
0.0
 10
14.09191709968569
 20
-6.834347158035193
 30
0.0
 10
14.09645062127985
 20
-6.834347158035193
 30
0.0
 10
14.12213019765348
 20
-6.834347158035193
 30
0.0
 10
14.14704226489501
 20
-6.827606206119602
 30
0.0
 10
14.16894657156902
 20
-6.815395068504737
 30
0.0
 10
14.19155526984777
 20
-6.857604704494507
 30
0.0
 10
14.23325828248499
 20
-6.890108547919681
 30
0.0
 10
14.2852654418457
 20
-6.900028098510069
 30
0.0
 10
14.2959567094032
 20
-6.902068898559415
 30
0.0
 10
14.30664461069263
 20
-6.903056898253403
 30
0.0
 10
14.31721805886582
 20
-6.903056898253403
 30
0.0
 10
14.35167517936917
 20
-6.903056898253403
 30
0.0
 10
14.38471846726098
 20
-6.892487657915353
 30
0.0
 10
14.41191959682596
 20
-6.873837690948903
 30
0.0
 10
14.44140978871431
 20
-6.921193509331159
 30
0.0
 10
14.4915099571836
 20
-6.956105076031033
 30
0.0
 10
14.55145141050929
 20
-6.967621920845608
 30
0.0
 10
14.56524806040998
 20
-6.970278747961402
 30
0.0
 10
14.57905649224904
 20
-6.971565503951271
 30
0.0
 10
14.59269997694999
 20
-6.971565503951271
 30
0.0
 10
14.6348305056389
 20
-6.971565503951271
 30
0.0
 10
14.67527958340055
 20
-6.959211299941191
 30
0.0
 10
14.70865781497054
 20
-6.93695269354728
 30
0.0
 10
14.73603230734387
 20
-6.989766915690375
 30
0.0
 10
14.78653137858555
 20
-7.028237469362921
 30
0.0
 10
14.84783280423292
 20
-7.039935251089092
 30
0.0
 10
14.86030146135916
 20
-7.042316044218826
 30
0.0
 10
14.8727734847536
 20
-7.043463941648648
 30
0.0
 10
14.88511422369111
 20
-7.043463941648648
 30
0.0
 10
14.93058577349181
 20
-7.043463941648648
 30
0.0
 10
14.9741654806075
 20
-7.027765350258733
 30
0.0
 10
15.00878754824875
 20
-7.000344571698734
 30
0.0
 10
15.01564295328055
 20
-7.017302147366536
 30
0.0
 10
15.02504662328111
 20
-7.033325583630307
 30
0.0
 10
15.03698677631208
 20
-7.047864495651967
 30
0.0
 10
15.06784872246041
 20
-7.085440463570926
 30
0.0
 10
15.11150922001111
 20
-7.108761969124568
 30
0.0
 10
15.15991278934654
 20
-7.113502516208276
 30
0.0
 10
15.1659872201739
 20
-7.114108444470351
 30
0.0
 10
15.17213065949765
 20
-7.1143954188278
 30
0.0
 10
15.17833300851362
 20
-7.1143954188278
 30
0.0
 10
15.22059145539111
 20
-7.1143954188278
 30
0.0
 10
15.2651389645921
 20
-7.100725845548797
 30
0.0
 10
15.30309868707695
 20
-7.075724572201958
 30
0.0
 10
15.31639376302736
 20
-7.066965542546844
 30
0.0
 10
15.32816560265221
 20
-7.057024952780694
 30
0.0
 10
15.33856905428527
 20
-7.046326952686968
 30
0.0
 10
15.34635691558694
 20
-7.055983092796749
 30
0.0
 10
15.35513614285082
 20
-7.064949147941383
 30
0.0
 10
15.36494713129418
 20
-7.073003785991836
 30
0.0
 10
15.39782378891404
 20
-7.100013879840844
 30
0.0
 10
15.43817861116819
 20
-7.1143954188278
 30
0.0
 10
15.48017280599806
 20
-7.1143954188278
 30
0.0
 10
15.48618327773112
 20
-7.1143954188278
 30
0.0
 10
15.49223077841333
 20
-7.114097504098936
 30
0.0
 10
15.49829006103417
 20
-7.113502516208276
 30
0.0
 10
15.56801220639015
 20
-7.106663942517116
 30
0.0
 10
15.62466986516236
 20
-7.061083830569562
 30
0.0
 10
15.64928233454096
 20
-7.000241058953962
 30
0.0
 10
15.68392628292514
 20
-7.027725796608289
 30
0.0
 10
15.72755648406264
 20
-7.043463941648648
 30
0.0
 10
15.77308694355543
 20
-7.043463941648648
 30
0.0
 10
15.78542263309082
 20
-7.043463941648648
 30
0.0
 10
15.79790812155764
 20
-7.042316044218826
 30
0.0
 10
15.81036499674555
 20
-7.039935251089092
 30
0.0
 10
15.87166978866096
 20
-7.028238310929964
 30
0.0
 10
15.92216885990264
 20
-6.989770281958499
 30
0.0
 10
15.94953830287376
 20
-6.93695521824836
 30
0.0
 10
15.98291821757791
 20
-6.959213824642297
 30
0.0
 10
16.02336392907139
 20
-6.971565503951271
 30
0.0
 10
16.06549614089431
 20
-6.971565503951271
 30
0.0
 10
16.07913962559542
 20
-6.971565503951271
 30
0.0
 10
16.09295815623874
 20
-6.970278747961402
 30
0.0
 10
16.10674975673722
 20
-6.967621920845608
 30
0.0
 10
16.16668952692903
 20
-6.956104234463989
 30
0.0
 10
16.21678969539819
 20
-6.921191826197097
 30
0.0
 10
16.24627820415251
 20
-6.873836007814841
 30
0.0
 10
16.27347765058347
 20
-6.89248681634831
 30
0.0
 10
16.30652430474333
 20
-6.903056898253403
 30
0.0
 10
16.34097974211264
 20
-6.903056898253403
 30
0.0
 10
16.3515515071518
 20
-6.903056898253403
 30
0.0
 10
16.36224950724555
 20
-6.902068898559415
 30
0.0
 10
16.37293740853486
 20
-6.900028098510069
 30
0.0
 10
16.4156048569893
 20
-6.891896036292792
 30
0.0
 10
16.45285261376638
 20
-6.868489532469058
 30
0.0
 10
16.47781012562751
 20
-6.834124142772073
 30
0.0
 10
16.48217617538264
 20
-6.828112829472072
 30
0.0
 10
16.48590600046249
 20
-6.821829690021154
 30
0.0
 10
16.4893379108136
 20
-6.815437988423304
 30
0.0
 10
16.51122033674472
 20
-6.827621354326159
 30
0.0
 10
16.53610042443916
 20
-6.834347158035193
 30
0.0
 10
16.56174633813152
 20
-6.834347158035193
 30
0.0
 10
16.56627565189056
 20
-6.834347158035193
 30
0.0
 10
16.57084031146486
 20
-6.834135083143464
 30
0.0
 10
16.57540497103916
 20
-6.833709250225966
 30
0.0
 10
16.61495862148013
 20
-6.830042542673381
 30
0.0
 10
16.6507117552107
 20
-6.811195649021758
 30
0.0
 10
16.67608331805096
 20
-6.780635825437407
 30
0.0
 10
16.70145824715943
 20
-6.750076001853055
 30
0.0
 10
16.71341018212888
 20
-6.711458173950152
 30
0.0
 10
16.70973758360709
 20
-6.671905365076175
 30
0.0
 10
16.70969550525554
 20
-6.67146185925104
 30
0.0
 10
16.70954065692194
 20
-6.671062114911465
 30
0.0
 10
16.70948679663194
 20
-6.670622816921473
 30
0.0
 10
16.70978976076291
 20
-6.669431158006041
 30
0.0
 10
16.71021054427832
 20
-6.668294200947634
 30
0.0
 10
16.71041756976777
 20
-6.667058780546616
 30
0.0
 10
16.72342987919584
 20
-6.589106951197714
 30
0.0
 10
16.72778919641473
 20
-6.513727792261534
 30
0.0
 10
16.72766969389638
 20
-6.446895588088737
 30
0.0
 10
16.72828740409679
 20
-6.446788709075841
 30
0.0
 10
16.72889501549293
 20
-6.446830787427365
 30
0.0
 10
16.72951272569346
 20
-6.446695295135441
 30
0.0
 10
17.04852722313972
 20
-6.377094335431744
 30
0.0
 10
17.21403316165738
 20
-5.735166360486308
 30
0.0
 10
17.24954392408305
 20
-5.580153921273955
 30
0.0
 10
17.27237563762487
 20
-5.578699693444984
 30
0.0
 10
17.29544298993513
 20
-5.577390215145278
 30
0.0
 10
17.31876786175695
 20
-5.576249891818734
 30
0.0
 10
17.29756037258444
 20
-5.687441935744636
 30
0.0
 10
17.23197537075096
 20
-5.980800420694158
 30
0.0
 10
17.10963508836999
 20
-6.112840604670585
 30
0.0
 10
17.09329185663458
 20
-6.130485740602404
 30
0.0
 10
17.09434381542292
 20
-6.158026863247793
 30
0.0
 10
17.11197801098332
 20
-6.17437514438537
 30
0.0
 10
17.12036001860861
 20
-6.182135233975083
 30
0.0
 10
17.13097386199931
 20
-6.185971938067874
 30
0.0
 10
17.14156077524513
 20
-6.185971938067874
 30
0.0
 10
17.15326360637348
 20
-6.185971938067874
 30
0.0
 10
17.16492940855235
 20
-6.181284409707081
 30
0.0
 10
17.1735066597289
 20
-6.172026330802812
 30
0.0
 10
17.32109395302973
 20
-6.012731998538457
 30
0.0
 10
17.39055184633819
 20
-5.671564932144204
 30
0.0
 10
17.40811535026806
 20
-5.5724830377895
 30
0.0
 10
17.44793493589082
 20
-5.571018711156158
 30
0.0
 10
17.48788243970208
 20
-5.569752152775019
 30
0.0
 10
17.52747311909249
 20
-5.56852430647728
 30
0.0
 10
17.73621540537723
 20
-5.562048448176344
 30
0.0
 10
17.93825881809804
 20
-5.555722388806885
 30
0.0
 10
18.09608293275985
 20
-5.520652607505237
 30
0.0
 10
17.99638080350347
 20
-5.793062805927573
 30
0.0
 10
17.4495877735389
 20
-5.797619049831559
 30
0.0
 10
17.41699556557556
 20
-5.797619049831559
 30
0.0
  0
SPLINE
  5
67
330
41
100
AcDbEntity
  8
Layer 2
 62
     7
420
 16777215
370
     9
100
AcDbSpline
210
0.0
220
0.0
230
1.0
 70
    11
 71
     3
 72
    35
 73
    31
 74
     0
 42
0.0000000001
 43
0.0000000001
 12
1.0
 22
0.0
 32
0.0
 13
1.0
 23
0.0
 33
0.0
 40
0.0
 40
0.0
 40
0.0
 40
0.0
 40
1.0
 40
1.0
 40
1.0
 40
2.0
 40
2.0
 40
2.0
 40
3.0
 40
3.0
 40
3.0
 40
4.0
 40
4.0
 40
4.0
 40
5.0
 40
5.0
 40
5.0
 40
6.0
 40
6.0
 40
6.0
 40
7.0
 40
7.0
 40
7.0
 40
8.0
 40
8.0
 40
8.0
 40
9.0
 40
9.0
 40
9.0
 40
10.0
 40
10.0
 40
10.0
 40
10.0
 10
17.20708686738625
 20
-5.36705063463627
 30
0.0
 10
17.19081937668362
 20
-5.381400194076049
 30
0.0
 10
17.18760290749249
 20
-5.405540544350515
 30
0.0
 10
17.19953969425529
 20
-5.423652749984373
 30
0.0
 10
17.20782576323917
 20
-5.436228286123524
 30
0.0
 10
17.22166449149139
 20
-5.443238539488915
 30
0.0
 10
17.23591390445444
 20
-5.443238539488915
 30
0.0
 10
17.24218526196695
 20
-5.443238539488915
 30
0.0
 10
17.24853740991443
 20
-5.441877725600344
 30
0.0
 10
17.25452600090458
 20
-5.43904501097514
 30
0.0
 10
17.25616369034626
 20
-5.438274135575057
 30
0.0
 10
17.42129428996819
 20
-5.362022271628082
 30
0.0
 10
17.70620512506401
 20
-5.392874960539087
 30
0.0
 10
17.92862119246292
 20
-5.417004370442164
 30
0.0
 10
18.05477882289501
 20
-5.399231316321662
 30
0.0
 10
18.12805911365679
 20
-5.333455278772337
 30
0.0
 10
18.17316037396388
 20
-5.292983478700888
 30
0.0
 10
18.19603079958902
 20
-5.233988788284616
 30
0.0
 10
18.19603079958902
 20
-5.158103847563009
 30
0.0
 10
18.19603079958902
 20
-5.14119171651488
 30
0.0
 10
18.18616090145348
 20
-5.125869305587671
 30
0.0
 10
18.1708376489593
 20
-5.118715985827053
 30
0.0
 10
18.15550934706279
 20
-5.111540785323641
 30
0.0
 10
18.13735001367528
 20
-5.113980488145532
 30
0.0
 10
18.12439156453709
 20
-5.124843435377278
 30
0.0
 10
18.11904424762431
 20
-5.129318888846329
 30
0.0
 10
17.99114289030472
 20
-5.234062846183317
 30
0.0
 10
17.78202694825818
 20
-5.205118831297846
 30
0.0
 10
17.44752930058194
 20
-5.158762794548011
 30
0.0
 10
17.21674974003236
 20
-5.35852556061569
 30
0.0
 10
17.20708686738625
 20
-5.36705063463627
 30
0.0
  0
SPLINE
  5
68
330
41
100
AcDbEntity
  8
Layer 2
 62
     7
420
 16777215
370
     9
100
AcDbSpline
210
0.0
220
0.0
230
1.0
 70
    11
 71
     3
 72
    23
 73
    19
 74
     0
 42
0.0000000001
 43
0.0000000001
 12
1.0
 22
0.0
 32
0.0
 13
1.0
 23
0.0
 33
0.0
 40
0.0
 40
0.0
 40
0.0
 40
0.0
 40
1.0
 40
1.0
 40
1.0
 40
2.0
 40
2.0
 40
2.0
 40
3.0
 40
3.0
 40
3.0
 40
4.0
 40
4.0
 40
4.0
 40
5.0
 40
5.0
 40
5.0
 40
6.0
 40
6.0
 40
6.0
 40
6.0
 10
18.08828665578777
 20
-5.246914416308514
 30
0.0
 10
18.08315982943693
 20
-5.25502964718516
 30
0.0
 10
18.07704163712404
 20
-5.262241876637922
 30
0.0
 10
18.06990346557
 20
-5.268652092710454
 30
0.0
 10
18.01829689211596
 20
-5.314960160139536
 30
0.0
 10
17.90574066803333
 20
-5.326939866820971
 30
0.0
 10
17.71559196372388
 20
-5.306307167930286
 30
0.0
 10
17.66433548215458
 20
-5.300747776125755
 30
0.0
 10
17.6166186315161
 20
-5.298420001718947
 30
0.0
 10
17.57258111193583
 20
-5.298420001718947
 30
0.0
 10
17.56635688217708
 20
-5.298420001718947
 30
0.0
 10
17.56020334404889
 20
-5.2984679710397
 30
0.0
 10
17.55412723008749
 20
-5.298558018711977
 30
0.0
 10
17.61845829704513
 20
-5.285420315796348
 30
0.0
 10
17.69123869699069
 20
-5.28045591188249
 30
0.0
 10
17.77008006269097
 20
-5.291372719404206
 30
0.0
 10
17.90820141003097
 20
-5.310473766299083
 30
0.0
 10
18.01730889242195
 20
-5.279403953094161
 30
0.0
 10
18.08828665578777
 20
-5.246914416308514
 30
0.0
  0
SPLINE
  5
69
330
41
100
AcDbEntity
  8
Layer 2
 62
     7
420
 16777215
370
     9
100
AcDbSpline
210
0.0
220
0.0
230
1.0
 70
    11
 71
     3
 72
   455
 73
   451
 74
     0
 42
0.0000000001
 43
0.0000000001
 12
1.0
 22
0.0
 32
0.0
 13
1.0
 23
0.0
 33
0.0
 40
0.0
 40
0.0
 40
0.0
 40
0.0
 40
1.0
 40
1.0
 40
1.0
 40
2.0
 40
2.0
 40
2.0
 40
3.0
 40
3.0
 40
3.0
 40
4.0
 40
4.0
 40
4.0
 40
5.0
 40
5.0
 40
5.0
 40
6.0
 40
6.0
 40
6.0
 40
7.0
 40
7.0
 40
7.0
 40
8.0
 40
8.0
 40
8.0
 40
9.0
 40
9.0
 40
9.0
 40
10.0
 40
10.0
 40
10.0
 40
11.0
 40
11.0
 40
11.0
 40
12.0
 40
12.0
 40
12.0
 40
13.0
 40
13.0
 40
13.0
 40
14.0
 40
14.0
 40
14.0
 40
15.0
 40
15.0
 40
15.0
 40
16.0
 40
16.0
 40
16.0
 40
17.0
 40
17.0
 40
17.0
 40
18.0
 40
18.0
 40
18.0
 40
19.0
 40
19.0
 40
19.0
 40
20.0
 40
20.0
 40
20.0
 40
21.0
 40
21.0
 40
21.0
 40
22.0
 40
22.0
 40
22.0
 40
23.0
 40
23.0
 40
23.0
 40
24.0
 40
24.0
 40
24.0
 40
25.0
 40
25.0
 40
25.0
 40
26.0
 40
26.0
 40
26.0
 40
27.0
 40
27.0
 40
27.0
 40
28.0
 40
28.0
 40
28.0
 40
29.0
 40
29.0
 40
29.0
 40
30.0
 40
30.0
 40
30.0
 40
31.0
 40
31.0
 40
31.0
 40
32.0
 40
32.0
 40
32.0
 40
33.0
 40
33.0
 40
33.0
 40
34.0
 40
34.0
 40
34.0
 40
35.0
 40
35.0
 40
35.0
 40
36.0
 40
36.0
 40
36.0
 40
37.0
 40
37.0
 40
37.0
 40
38.0
 40
38.0
 40
38.0
 40
39.0
 40
39.0
 40
39.0
 40
40.0
 40
40.0
 40
40.0
 40
41.0
 40
41.0
 40
41.0
 40
42.0
 40
42.0
 40
42.0
 40
43.0
 40
43.0
 40
43.0
 40
44.0
 40
44.0
 40
44.0
 40
45.0
 40
45.0
 40
45.0
 40
46.0
 40
46.0
 40
46.0
 40
47.0
 40
47.0
 40
47.0
 40
48.0
 40
48.0
 40
48.0
 40
49.0
 40
49.0
 40
49.0
 40
50.0
 40
50.0
 40
50.0
 40
51.0
 40
51.0
 40
51.0
 40
52.0
 40
52.0
 40
52.0
 40
53.0
 40
53.0
 40
53.0
 40
54.0
 40
54.0
 40
54.0
 40
55.0
 40
55.0
 40
55.0
 40
56.0
 40
56.0
 40
56.0
 40
57.0
 40
57.0
 40
57.0
 40
58.0
 40
58.0
 40
58.0
 40
59.0
 40
59.0
 40
59.0
 40
60.0
 40
60.0
 40
60.0
 40
61.0
 40
61.0
 40
61.0
 40
62.0
 40
62.0
 40
62.0
 40
63.0
 40
63.0
 40
63.0
 40
64.0
 40
64.0
 40
64.0
 40
65.0
 40
65.0
 40
65.0
 40
66.0
 40
66.0
 40
66.0
 40
67.0
 40
67.0
 40
67.0
 40
68.0
 40
68.0
 40
68.0
 40
69.0
 40
69.0
 40
69.0
 40
70.0
 40
70.0
 40
70.0
 40
71.0
 40
71.0
 40
71.0
 40
72.0
 40
72.0
 40
72.0
 40
73.0
 40
73.0
 40
73.0
 40
74.0
 40
74.0
 40
74.0
 40
75.0
 40
75.0
 40
75.0
 40
76.0
 40
76.0
 40
76.0
 40
77.0
 40
77.0
 40
77.0
 40
78.0
 40
78.0
 40
78.0
 40
79.0
 40
79.0
 40
79.0
 40
80.0
 40
80.0
 40
80.0
 40
81.0
 40
81.0
 40
81.0
 40
82.0
 40
82.0
 40
82.0
 40
83.0
 40
83.0
 40
83.0
 40
84.0
 40
84.0
 40
84.0
 40
85.0
 40
85.0
 40
85.0
 40
86.0
 40
86.0
 40
86.0
 40
87.0
 40
87.0
 40
87.0
 40
88.0
 40
88.0
 40
88.0
 40
89.0
 40
89.0
 40
89.0
 40
90.0
 40
90.0
 40
90.0
 40
91.0
 40
91.0
 40
91.0
 40
92.0
 40
92.0
 40
92.0
 40
93.0
 40
93.0
 40
93.0
 40
94.0
 40
94.0
 40
94.0
 40
95.0
 40
95.0
 40
95.0
 40
96.0
 40
96.0
 40
96.0
 40
97.0
 40
97.0
 40
97.0
 40
98.0
 40
98.0
 40
98.0
 40
99.0
 40
99.0
 40
99.0
 40
100.0
 40
100.0
 40
100.0
 40
101.0
 40
101.0
 40
101.0
 40
102.0
 40
102.0
 40
102.0
 40
103.0
 40
103.0
 40
103.0
 40
104.0
 40
104.0
 40
104.0
 40
105.0
 40
105.0
 40
105.0
 40
106.0
 40
106.0
 40
106.0
 40
107.0
 40
107.0
 40
107.0
 40
108.0
 40
108.0
 40
108.0
 40
109.0
 40
109.0
 40
109.0
 40
110.0
 40
110.0
 40
110.0
 40
111.0
 40
111.0
 40
111.0
 40
112.0
 40
112.0
 40
112.0
 40
113.0
 40
113.0
 40
113.0
 40
114.0
 40
114.0
 40
114.0
 40
115.0
 40
115.0
 40
115.0
 40
116.0
 40
116.0
 40
116.0
 40
117.0
 40
117.0
 40
117.0
 40
118.0
 40
118.0
 40
118.0
 40
119.0
 40
119.0
 40
119.0
 40
120.0
 40
120.0
 40
120.0
 40
121.0
 40
121.0
 40
121.0
 40
122.0
 40
122.0
 40
122.0
 40
123.0
 40
123.0
 40
123.0
 40
124.0
 40
124.0
 40
124.0
 40
125.0
 40
125.0
 40
125.0
 40
126.0
 40
126.0
 40
126.0
 40
127.0
 40
127.0
 40
127.0
 40
128.0
 40
128.0
 40
128.0
 40
129.0
 40
129.0
 40
129.0
 40
130.0
 40
130.0
 40
130.0
 40
131.0
 40
131.0
 40
131.0
 40
132.0
 40
132.0
 40
132.0
 40
133.0
 40
133.0
 40
133.0
 40
134.0
 40
134.0
 40
134.0
 40
135.0
 40
135.0
 40
135.0
 40
136.0
 40
136.0
 40
136.0
 40
137.0
 40
137.0
 40
137.0
 40
138.0
 40
138.0
 40
138.0
 40
139.0
 40
139.0
 40
139.0
 40
140.0
 40
140.0
 40
140.0
 40
141.0
 40
141.0
 40
141.0
 40
142.0
 40
142.0
 40
142.0
 40
143.0
 40
143.0
 40
143.0
 40
144.0
 40
144.0
 40
144.0
 40
145.0
 40
145.0
 40
145.0
 40
146.0
 40
146.0
 40
146.0
 40
147.0
 40
147.0
 40
147.0
 40
148.0
 40
148.0
 40
148.0
 40
149.0
 40
149.0
 40
149.0
 40
150.0
 40
150.0
 40
150.0
 40
150.0
 10
16.15727407499
 20
-7.157136925180945
 30
0.0
 10
16.22148900569735
 20
-7.143417699447127
 30
0.0
 10
16.27437981044027
 20
-7.104315128934559
 30
0.0
 10
16.3042049460068
 20
-7.052297870769482
 30
0.0
 10
16.33276941416153
 20
-7.071834849386252
 30
0.0
 10
16.36745039149501
 20
-7.082846753982418
 30
0.0
 10
16.40354688457402
 20
-7.082846753982418
 30
0.0
 10
16.41586069336666
 20
-7.082846753982418
 30
0.0
 10
16.42833944929735
 20
-7.081570938363939
 30
0.0
 10
16.44078117627861
 20
-7.078935150423932
 30
0.0
 10
16.50417305443001
 20
-7.065485226139925
 30
0.0
 10
16.55028251203986
 20
-7.0273117456292
 30
0.0
 10
16.56958132718695
 20
-6.978157498502443
 30
0.0
 10
16.58219305070846
 20
-6.981399214704525
 30
0.0
 10
16.59594593912346
 20
-6.98321531635669
 30
0.0
 10
16.61112107582029
 20
-6.98321531635669
 30
0.0
 10
16.61992218382695
 20
-6.98321531635669
 30
0.0
 10
16.62914912475112
 20
-6.982673347188943
 30
0.0
 10
16.63880526486082
 20
-6.98157846848206
 30
0.0
 10
16.71531380675222
 20
-6.972893496725671
 30
0.0
 10
16.77102891044999
 20
-6.908255257801784
 30
0.0
 10
16.76300372724568
 20
-6.837482836791448
 30
0.0
 10
16.76029219827291
 20
-6.813587382522883
 30
0.0
 10
16.7387615473604
 20
-6.7964210982315
 30
0.0
 10
16.71483411354471
 20
-6.79913178563725
 30
0.0
 10
16.69093865927612
 20
-6.801841631475958
 30
0.0
 10
16.67376732558263
 20
-6.823409311337703
 30
0.0
 10
16.67647717142139
 20
-6.847304765606268
 30
0.0
 10
16.67909276175265
 20
-6.870360335978224
 30
0.0
 10
16.65779101707249
 20
-6.891789998846939
 30
0.0
 10
16.62898417761304
 20
-6.895052754224808
 30
0.0
 10
16.61346399843362
 20
-6.896807421483723
 30
0.0
 10
16.58618376156778
 20
-6.897965417717917
 30
0.0
 10
16.57803739271096
 20
-6.885783734949124
 30
0.0
 10
16.57532418060416
 20
-6.881726540294292
 30
0.0
 10
16.57194108114097
 20
-6.878443587307705
 30
0.0
 10
16.56827521515541
 20
-6.87562770402312
 30
0.0
 10
16.55839521821541
 20
-6.862585939748972
 30
0.0
 10
16.54163793550098
 20
-6.855579052651718
 30
0.0
 10
16.52460630193445
 20
-6.859210414389003
 30
0.0
 10
16.50108450342749
 20
-6.864195015911592
 30
0.0
 10
16.48605748252806
 20
-6.887314545377876
 30
0.0
 10
16.49104292561765
 20
-6.910838027018876
 30
0.0
 10
16.50063678976721
 20
-6.956067205514652
 30
0.0
 10
16.4636347705632
 20
-6.985075179494465
 30
0.0
 10
16.42271609839847
 20
-6.993749210879463
 30
0.0
 10
16.38266424027526
 20
-7.002231364981475
 30
0.0
 10
16.3424356530757
 20
-6.983736246348674
 30
0.0
 10
16.32710903431333
 20
-6.949720948536449
 30
0.0
 10
16.31722903737333
 20
-6.927803176789944
 30
0.0
 10
16.29144005728583
 20
-6.918034266698062
 30
0.0
 10
16.2695222855393
 20
-6.927920154607212
 30
0.0
 10
16.25709570676458
 20
-6.933517416928124
 30
0.0
 10
16.24876587629513
 20
-6.944281900817284
 30
0.0
 10
16.24551742755681
 20
-6.956502295669502
 30
0.0
 10
16.2441995335868
 20
-6.959877821029472
 30
0.0
 10
16.24314084226221
 20
-6.96339136338247
 30
0.0
 10
16.24269312860194
 20
-6.967154009576562
 30
0.0
 10
16.23676176416987
 20
-7.017112794784629
 30
0.0
 10
16.19415827480973
 20
-7.060216174960967
 30
0.0
 10
16.13909117772555
 20
-7.071972866379282
 30
0.0
 10
16.08482693558861
 20
-7.083558719690371
 30
0.0
 10
16.03027487752721
 20
-7.063224777095582
 30
0.0
 10
16.00342047357875
 20
-7.021354292619157
 30
0.0
 10
15.99044182683194
 20
-7.001126387470221
 30
0.0
 10
15.96351168185083
 20
-6.995227002585302
 30
0.0
 10
15.94326189595917
 20
-7.0082266885079
 30
0.0
 10
15.93010820326986
 20
-7.016661714856203
 30
0.0
 10
15.92315181019459
 20
-7.030991076687238
 30
0.0
 10
15.92336556822028
 20
-7.045545136915481
 30
0.0
 10
15.92122125542624
 20
-7.049534164640792
 30
0.0
 10
15.91949772614736
 20
-7.053812691424683
 30
0.0
 10
15.91867635672543
 20
-7.058515367992008
 30
0.0
 10
15.91017316344763
 20
-7.107188238777224
 30
0.0
 10
15.87279748848209
 20
-7.14540211450541
 30
0.0
 10
15.82347156168096
 20
-7.155861951129483
 30
0.0
 10
15.7829080308032
 20
-7.164450142677373
 30
0.0
 10
15.7287414104418
 20
-7.161452480914173
 30
0.0
 10
15.7009595996257
 20
-7.098270152953319
 30
0.0
 10
15.70069703071209
 20
-7.097672640361552
 30
0.0
 10
15.70030317734182
 20
-7.097183689916745
 30
0.0
 10
15.70001704455139
 20
-7.096603850232618
 30
0.0
 10
15.69925290168749
 20
-7.095047792792936
 30
0.0
 10
15.69841806719306
 20
-7.09356074384977
 30
0.0
 10
15.69748224465499
 20
-7.092121664227331
 30
0.0
 10
15.6968527525161
 20
-7.09114965430692
 30
0.0
 10
15.69619969650027
 20
-7.090214673335847
 30
0.0
 10
15.69550119586486
 20
-7.089307464076809
 30
0.0
 10
15.69445933588084
 20
-7.087950858023381
 30
0.0
 10
15.69334846740041
 20
-7.08668345807521
 30
0.0
 10
15.69216017475305
 20
-7.08546318588075
 30
0.0
 10
15.6913960318893
 20
-7.084681370109264
 30
0.0
 10
15.69062683962319
 20
-7.083927326049787
 30
0.0
 10
15.68981051960347
 20
-7.083209469372655
 30
0.0
 10
15.68848084369514
 20
-7.082036324931904
 30
0.0
 10
15.68709057496042
 20
-7.080974267339216
 30
0.0
 10
15.68562961459515
 20
-7.079971119438672
 30
0.0
 10
15.68482507651389
 20
-7.079421576167634
 30
0.0
 10
15.68402558783471
 20
-7.078890547371302
 30
0.0
 10
15.68318907020625
 20
-7.078398230658371
 30
0.0
 10
15.68159009284805
 20
-7.077452309315908
 30
0.0
 10
15.67994062146792
 20
-7.076636830863182
 30
0.0
 10
15.67822550785945
 20
-7.075900459711369
 30
0.0
 10
15.67738225769472
 20
-7.075539427455219
 30
0.0
 10
15.67654574006625
 20
-7.075195226539663
 30
0.0
 10
15.67568229229278
 20
-7.074888054573471
 30
0.0
 10
15.67396886181834
 20
-7.074277076909235
 30
0.0
 10
15.67222176866277
 20
-7.073793175866588
 30
0.0
 10
15.67042418148528
 20
-7.073401847197348
 30
0.0
 10
15.6693840046354
 20
-7.073172099397955
 30
0.0
 10
15.66835056032167
 20
-7.072982746816074
 30
0.0
 10
15.66729355213111
 20
-7.072828740049468
 30
0.0
 10
15.66569457477292
 20
-7.072602358518199
 30
0.0
 10
15.66408549861027
 20
-7.072468549360337
 30
0.0
 10
15.66244275976639
 20
-7.072423946307708
 30
0.0
 10
15.66104575849555
 20
-7.072379343255079
 30
0.0
 10
15.65965885602903
 20
-7.072418896905522
 30
0.0
 10
15.65825175595374
 20
-7.072509786144842
 30
0.0
 10
15.65748256368778
 20
-7.072562804867781
 30
0.0
 10
15.65674030156667
 20
-7.072462658391133
 30
0.0
 10
15.65596437676443
 20
-7.072556913898552
 30
0.0
 10
15.65529617254209
 20
-7.072636862766457
 30
0.0
 10
15.65469361054819
 20
-7.07287755093724
 30
0.0
 10
15.65403718826416
 20
-7.072986113084198
 30
0.0
 10
15.65258632670333
 20
-7.073224276553876
 30
0.0
 10
15.65115734588527
 20
-7.07355501239691
 30
0.0
 10
15.64971658312889
 20
-7.073946341066176
 30
0.0
 10
15.64825057336139
 20
-7.074344402271663
 30
0.0
 10
15.64682327567751
 20
-7.074789591230885
 30
0.0
 10
15.64542964067459
 20
-7.075329877264569
 30
0.0
 10
15.6448169798764
 20
-7.075566357600185
 30
0.0
 10
15.64418748773735
 20
-7.075661454674647
 30
0.0
 10
15.64358155947528
 20
-7.075926548289317
 30
0.0
 10
15.64290325644861
 20
-7.0762253045852
 30
0.0
 10
15.64234613907431
 20
-7.076667968843316
 30
0.0
 10
15.64168971679042
 20
-7.076996179985295
 30
0.0
 10
15.6403162793964
 20
-7.077684581816357
 30
0.0
 10
15.63899670229221
 20
-7.078423477669276
 30
0.0
 10
15.63771415413751
 20
-7.079245688658248
 30
0.0
 10
15.63653427716056
 20
-7.080000574284743
 30
0.0
 10
15.63540994360763
 20
-7.080790805726539
 30
0.0
 10
15.63432432213805
 20
-7.081642471561558
 30
0.0
 10
15.63322018619389
 20
-7.082510968737197
 30
0.0
 10
15.63217664307583
 20
-7.083422385831404
 30
0.0
 10
15.63116339637084
 20
-7.084390187916672
 30
0.0
 10
15.63011648698471
 20
-7.085388286415031
 30
0.0
 10
15.62912680415666
 20
-7.086409107223213
 30
0.0
 10
15.62819434788667
 20
-7.08749641182683
 30
0.0
 10
15.62730565310236
 20
-7.088529856140465
 30
0.0
 10
15.62649101621666
 20
-7.089600329403462
 30
0.0
 10
15.62570162634195
 20
-7.090712881018008
 30
0.0
 10
15.62488530632221
 20
-7.091866669417034
 30
0.0
 10
15.62412116345834
 20
-7.093030556620432
 30
0.0
 10
15.62342434595694
 20
-7.094253353515998
 30
0.0
 10
15.6227207959193
 20
-7.095477833545601
 30
0.0
 10
15.62210645198694
 20
-7.096731768421275
 30
0.0
 10
15.62152577073584
 20
-7.098022732246313
 30
0.0
 10
15.62096697022735
 20
-7.099264885183579
 30
0.0
 10
15.62045866374097
 20
-7.100508721254881
 30
0.0
 10
15.62002104888501
 20
-7.101797160378813
 30
0.0
 10
15.61955818701805
 20
-7.103151241731161
 30
0.0
 10
15.61918284812236
 20
-7.104520471290041
 30
0.0
 10
15.6188529538464
 20
-7.105925046664197
 30
0.0
 10
15.61853147524069
 20
-7.107298484058244
 30
0.0
 10
15.61827563886332
 20
-7.108668555184168
 30
0.0
 10
15.61808712784846
 20
-7.110071447424262
 30
0.0
 10
15.61790871563805
 20
-7.111421320941442
 30
0.0
 10
15.61779931192402
 20
-7.112772036025667
 30
0.0
 10
15.61774881790221
 20
-7.11415304752298
 30
0.0
 10
15.61768822507598
 20
-7.115703213993432
 30
0.0
 10
15.61772188775722
 20
-7.117241598525474
 30
0.0
 10
15.61782960833708
 20
-7.118802705367367
 30
0.0
 10
15.61788010235902
 20
-7.119515512642338
 30
0.0
 10
15.61778248058348
 20
-7.120204756040443
 30
0.0
 10
15.61786832042056
 20
-7.120921771150556
 30
0.0
 10
15.62074311339721
 20
-7.145104199776571
 30
0.0
 10
15.60907226181611
 20
-7.172390327611638
 30
0.0
 10
15.58585679370834
 20
-7.195796831435372
 30
0.0
 10
15.56190242974763
 20
-7.21994728051421
 30
0.0
 10
15.52943982310694
 20
-7.236519418481976
 30
0.0
 10
15.49901380868055
 20
-7.240133107311622
 30
0.0
 10
15.47122694846222
 20
-7.243449722979449
 30
0.0
 10
15.44379186326263
 20
-7.235721612936914
 30
0.0
 10
15.42179498421526
 20
-7.218395430909671
 30
0.0
 10
15.39980147143597
 20
-7.201069248882454
 30
0.0
 10
15.38586680454235
 20
-7.17621693290006
 30
0.0
 10
15.38256449551404
 20
-7.148409875073007
 30
0.0
 10
15.37972673148667
 20
-7.124525361175857
 30
0.0
 10
15.35814390341834
 20
-7.107390214864583
 30
0.0
 10
15.33419122259167
 20
-7.110313818729107
 30
0.0
 10
15.33242561496139
 20
-7.110523368919732
 30
0.0
 10
15.33078624238568
 20
-7.111036724808425
 30
0.0
 10
15.32910142519027
 20
-7.11144488481831
 30
0.0
 10
15.32741660799487
 20
-7.111036724808425
 30
0.0
 10
15.32577555228515
 20
-7.110523368919732
 30
0.0
 10
15.32401162778888
 20
-7.110313818729107
 30
0.0
 10
15.30007409516874
 20
-7.107401155235973
 30
0.0
 10
15.27847443575986
 20
-7.124536301547247
 30
0.0
 10
15.2756366717325
 20
-7.148409875073007
 30
0.0
 10
15.27233604583833
 20
-7.17621693290006
 30
0.0
 10
15.25839969581057
 20
-7.201069248882454
 30
0.0
 10
15.23640786616529
 20
-7.218395430909671
 30
0.0
 10
15.21442108592237
 20
-7.235721612936914
 30
0.0
 10
15.18701798027001
 20
-7.243449722979449
 30
0.0
 10
15.15917894289583
 20
-7.240133107311622
 30
0.0
 10
15.12876134413957
 20
-7.236519418481976
 30
0.0
 10
15.09629873749888
 20
-7.21994728051421
 30
0.0
 10
15.07234605667236
 20
-7.195796831435372
 30
0.0
 10
15.04912553916236
 20
-7.172401267983054
 30
0.0
 10
15.0374580538493
 20
-7.145104199776571
 30
0.0
 10
15.04033452996014
 20
-7.120921771150556
 30
0.0
 10
15.04042036979722
 20
-7.120204756040443
 30
0.0
 10
15.04032274802166
 20
-7.119515512642338
 30
0.0
 10
15.04037155890945
 20
-7.118802705367367
 30
0.0
 10
15.04048096262348
 20
-7.117241598525474
 30
0.0
 10
15.04051462530459
 20
-7.115703213993432
 30
0.0
 10
15.04045403247846
 20
-7.11415304752298
 30
0.0
 10
15.04040353845666
 20
-7.112772036025667
 30
0.0
 10
15.04029245160847
 20
-7.111421320941442
 30
0.0
 10
15.04011403939805
 20
-7.110071447424262
 30
0.0
 10
15.03992721151722
 20
-7.108668555184168
 30
0.0
 10
15.03967137514001
 20
-7.107298484058244
 30
0.0
 10
15.03934989653418
 20
-7.105925046664197
 30
0.0
 10
15.03902000225819
 20
-7.104520471290041
 30
0.0
 10
15.03864298022846
 20
-7.103151241731161
 30
0.0
 10
15.03818180149569
 20
-7.101797160378813
 30
0.0
 10
15.0377425035057
 20
-7.100508721254881
 30
0.0
 10
15.03723419701916
 20
-7.099264885183579
 30
0.0
 10
15.03667707964486
 20
-7.098022732246313
 30
0.0
 10
15.03609471525957
 20
-7.096731768421275
 30
0.0
 10
15.03548037132721
 20
-7.095477833545601
 30
0.0
 10
15.03477850442361
 20
-7.094253353515998
 30
0.0
 10
15.03408168692221
 20
-7.093030556620432
 30
0.0
 10
15.03331586092445
 20
-7.091866669417034
 30
0.0
 10
15.03249954090458
 20
-7.090712881018008
 30
0.0
 10
15.03171183416389
 20
-7.089600329403462
 30
0.0
 10
15.03089719727819
 20
-7.088529856140465
 30
0.0
 10
15.03000850249388
 20
-7.08749641182683
 30
0.0
 10
15.02907604622389
 20
-7.086409107223213
 30
0.0
 10
15.0280846802618
 20
-7.085388286415031
 30
0.0
 10
15.02703945400971
 20
-7.084390187916672
 30
0.0
 10
15.02602620730487
 20
-7.083422385831404
 30
0.0
 10
15.02498266418681
 20
-7.082510968737197
 30
0.0
 10
15.02387852824262
 20
-7.081642471561558
 30
0.0
 10
15.02279122363903
 20
-7.080790805726539
 30
0.0
 10
15.02166689008598
 20
-7.080000574284743
 30
0.0
 10
15.02048869624307
 20
-7.079245688658248
 30
0.0
 10
15.01920614808834
 20
-7.078423477669276
 30
0.0
 10
15.0178865709843
 20
-7.077684581816357
 30
0.0
 10
15.01651145045611
 20
-7.076996179985295
 30
0.0
 10
15.01585671130624
 20
-7.076667968843316
 30
0.0
 10
15.01529791079793
 20
-7.0762253045852
 30
0.0
 10
15.01462129090527
 20
-7.075926548289317
 30
0.0
 10
15.01401199637515
 20
-7.075661454674647
 30
0.0
 10
15.01338250423626
 20
-7.075564674466123
 30
0.0
 10
15.01276984343778
 20
-7.075328194130507
 30
0.0
 10
15.01138125783723
 20
-7.074790432797928
 30
0.0
 10
15.00996237582361
 20
-7.074346926972768
 30
0.0
 10
15.00850478172651
 20
-7.073950548901317
 30
0.0
 10
15.00704718762932
 20
-7.073553329262849
 30
0.0
 10
15.00560305860472
 20
-7.073219227151689
 30
0.0
 10
15.00413536570333
 20
-7.07297938054795
 30
0.0
 10
15.00348735908973
 20
-7.072872501535054
 30
0.0
 10
15.00289489590013
 20
-7.072636021199438
 30
0.0
 10
15.00223679048208
 20
-7.072556913898552
 30
0.0
 10
15.00149452836111
 20
-7.072468549360337
 30
0.0
 10
15.00077919638501
 20
-7.072567012702923
 30
0.0
 10
15.0000419836661
 20
-7.07251651868109
 30
0.0
 10
14.99854399435152
 20
-7.072415530637398
 30
0.0
 10
14.99706788577987
 20
-7.072380184822123
 30
0.0
 10
14.99558167840362
 20
-7.07243404511208
 30
0.0
 10
14.99410725296598
 20
-7.072483697566895
 30
0.0
 10
14.99266312394138
 20
-7.072602358518199
 30
0.0
 10
14.99122236118486
 20
-7.072797602069335
 30
0.0
 10
14.98993139735987
 20
-7.072975172712782
 30
0.0
 10
14.98867072994792
 20
-7.07321081148138
 30
0.0
 10
14.98740501313374
 20
-7.073501993673997
 30
0.0
 10
14.98588345994237
 20
-7.073850402424669
 30
0.0
 10
14.98440398510249
 20
-7.074258562434554
 30
0.0
 10
14.98294134160319
 20
-7.074764344219981
 30
0.0
 10
14.98176988029652
 20
-7.075168296394698
 30
0.0
 10
14.98063881420722
 20
-7.075630316694514
 30
0.0
 10
14.97950438184999
 20
-7.076132732211818
 30
0.0
 10
14.97810401431098
 20
-7.076755491814512
 30
0.0
 10
14.9767474082575
 20
-7.077423696036854
 30
0.0
 10
14.97542446488529
 20
-7.078187838900703
 30
0.0
 10
14.97429676506416
 20
-7.078835003947283
 30
0.0
 10
14.97322292553306
 20
-7.079544444954131
 30
0.0
 10
14.97215581853819
 20
-7.080292598044378
 30
0.0
 10
14.97095911022054
 20
-7.081133323508007
 30
0.0
 10
14.96981289592486
 20
-7.08200771165285
 30
0.0
 10
14.9687053937125
 20
-7.082963731799686
 30
0.0
 10
14.96768541447139
 20
-7.083844852480802
 30
0.0
 10
14.9667260280564
 20
-7.084778991884832
 30
0.0
 10
14.96578347298209
 20
-7.085759417475552
 30
0.0
 10
14.96476012747277
 20
-7.086825682903382
 30
0.0
 10
14.96379905792375
 20
-7.087927294146513
 30
0.0
 10
14.96288511612847
 20
-7.089095389185078
 30
0.0
 10
14.96207721177903
 20
-7.090129675065756
 30
0.0
 10
14.96132821712182
 20
-7.09119678206063
 30
0.0
 10
14.96060951887749
 20
-7.092316066211424
 30
0.0
 10
14.9597477542382
 20
-7.09365415779017
 30
0.0
 10
14.95897519570402
 20
-7.095033486153422
 30
0.0
 10
14.95825986372792
 20
-7.096471724208818
 30
0.0
 10
14.95795016706069
 20
-7.097095325378531
 30
0.0
 10
14.95752601727721
 20
-7.097625512607843
 30
0.0
 10
14.95724325075485
 20
-7.098270152953319
 30
0.0
 10
14.92945639053667
 20
-7.161442382109802
 30
0.0
 10
14.87526788943251
 20
-7.164440043873001
 30
0.0
 10
14.83473633810179
 20
-7.155861951129483
 30
0.0
 10
14.78539862936236
 20
-7.14540211450541
 30
0.0
 10
14.74802463753069
 20
-7.107188238777224
 30
0.0
 10
14.73952144425291
 20
-7.058515367992008
 30
0.0
 10
14.73869839169694
 20
-7.053805958888435
 30
0.0
 10
14.73697486241819
 20
-7.049519858001278
 30
0.0
 10
14.73483391589222
 20
-7.045523256172676
 30
0.0
 10
14.73503925824762
 20
-7.030975928480706
 30
0.0
 10
14.72808118203819
 20
-7.01665750702106
 30
0.0
 10
14.7149359050193
 20
-7.0082266885079
 30
0.0
 10
14.69468443599347
 20
-6.995227002585302
 30
0.0
 10
14.66776102354861
 20
-7.001126387470221
 30
0.0
 10
14.65477732739959
 20
-7.021354292619157
 30
0.0
 10
14.62792124031721
 20
-7.063224777095582
 30
0.0
 10
14.5734230425457
 20
-7.083548620885999
 30
0.0
 10
14.51911672205723
 20
-7.071972866379282
 30
0.0
 10
14.46404457557098
 20
-7.060216174960967
 30
0.0
 10
14.42143435367459
 20
-7.017112794784629
 30
0.0
 10
14.41550298924249
 20
-6.967154009576562
 30
0.0
 10
14.41505695871625
 20
-6.963387155547328
 30
0.0
 10
14.41399826739166
 20
-6.959870246926205
 30
0.0
 10
14.4126820565557
 20
-6.95649219686513
 30
0.0
 10
14.40943024154917
 20
-6.944279376116204
 30
0.0
 10
14.40110546048193
 20
-6.933520783196248
 30
0.0
 10
14.38868393110945
 20
-6.927920154607212
 30
0.0
 10
14.36676279309485
 20
-6.918055305873824
 30
0.0
 10
14.34098391181166
 20
-6.927803176789944
 30
0.0
 10
14.33109886546946
 20
-6.949720948536449
 30
0.0
 10
14.31576719730487
 20
-6.983725305977284
 30
0.0
 10
14.27553692697125
 20
-7.002221266177129
 30
0.0
 10
14.23548506884819
 20
-6.993749210879463
 30
0.0
 10
14.19456134728125
 20
-6.985065080690092
 30
0.0
 10
14.15756521904639
 20
-6.956067205514652
 30
0.0
 10
14.16715824162889
 20
-6.910838027018876
 30
0.0
 10
14.17214873412068
 20
-6.887314545377876
 30
0.0
 10
14.15712423792236
 20
-6.864205956283008
 30
0.0
 10
14.13360075628139
 20
-6.859210414389003
 30
0.0
 10
14.11657333055
 20
-6.85559167615717
 30
0.0
 10
14.09984466111458
 20
-6.862576682511644
 30
0.0
 10
14.08996298104054
 20
-6.875588150372677
 30
0.0
 10
14.08628028371443
 20
-6.878411607760527
 30
0.0
 10
14.0828845607457
 20
-6.881708867386654
 30
0.0
 10
14.08016040826735
 20
-6.885783734949124
 30
0.0
 10
14.07201824724583
 20
-6.897965417717917
 30
0.0
 10
14.04473211941068
 20
-6.896807421483723
 30
0.0
 10
14.02921278179833
 20
-6.895052754224808
 30
0.0
 10
14.01432546102597
 20
-6.89336288762724
 30
0.0
 10
14.0011288484182
 20
-6.886847475675873
 30
0.0
 10
13.99204581545625
 20
-6.876695652585012
 30
0.0
 10
13.98751818483126
 20
-6.871636151596704
 30
0.0
 10
13.98015699801416
 20
-6.86109131670254
 30
0.0
 10
13.98172483739222
 20
-6.847304765606268
 30
0.0
 10
13.98443552479805
 20
-6.823409311337703
 30
0.0
 10
13.96726839893957
 20
-6.801841631475958
 30
0.0
 10
13.94337294467111
 20
-6.79913178563725
 30
0.0
 10
13.91954144949679
 20
-6.7964210982315
 30
0.0
 10
13.89790981054069
 20
-6.813587382522883
 30
0.0
 10
13.89519996470209
 20
-6.837482836791448
 30
0.0
 10
13.89119747190415
 20
-6.872720089932171
 30
0.0
 10
13.90255021114778
 20
-6.907266416540753
 30
0.0
 10
13.9271576311243
 20
-6.934765460834594
 30
0.0
 10
13.95050522525584
 20
-6.960850672516926
 30
0.0
 10
13.98326069722318
 20
-6.977474987640562
 30
0.0
 10
14.01939085298348
 20
-6.98157846848206
 30
0.0
 10
14.02904783466028
 20
-6.982673347188943
 30
0.0
 10
14.03827393401737
 20
-6.98321531635669
 30
0.0
 10
14.04707588359111
 20
-6.98321531635669
 30
0.0
 10
14.06225270342209
 20
-6.98321531635669
 30
0.0
 10
14.07600643340402
 20
-6.981398373137507
 30
0.0
 10
14.08861731535848
 20
-6.978155815368382
 30
0.0
 10
14.10791697207264
 20
-7.02730922092812
 30
0.0
 10
14.15402727124943
 20
-7.065486067706943
 30
0.0
 10
14.217420832535
 20
-7.078935150423932
 30
0.0
 10
14.22986255951625
 20
-7.081570938363939
 30
0.0
 10
14.24233205820959
 20
-7.082846753982418
 30
0.0
 10
14.25465091640444
 20
-7.082846753982418
 30
0.0
 10
14.29074236008124
 20
-7.082846753982418
 30
0.0
 10
14.32542502054874
 20
-7.071834007819208
 30
0.0
 10
14.3539911718375
 20
-7.05229618763542
 30
0.0
 10
14.38381799053806
 20
-7.104314287367515
 30
0.0
 10
14.4367138446832
 20
-7.143417699447127
 30
0.0
 10
14.50093382479291
 20
-7.157136925180945
 30
0.0
 10
14.51703805149153
 20
-7.160570518666039
 30
0.0
 10
14.5331843565418
 20
-7.16223934608782
 30
0.0
 10
14.5491236361025
 20
-7.16223934608782
 30
0.0
 10
14.59317798702346
 20
-7.16223934608782
 30
0.0
 10
14.63553910507875
 20
-7.14944752722181
 30
0.0
 10
14.67057858996721
 20
-7.126253939856825
 30
0.0
 10
14.69789585578251
 20
-7.184147019029953
 30
0.0
 10
14.75105259570708
 20
-7.227133421389023
 30
0.0
 10
14.81667126022166
 20
-7.241047049106909
 30
0.0
 10
14.83396546270167
 20
-7.244714598226538
 30
0.0
 10
14.85074967556125
 20
-7.246511343837002
 30
0.0
 10
14.86688588180709
 20
-7.246511343837002
 30
0.0
 10
14.90840879909986
 20
-7.246511343837002
 30
0.0
 10
14.9455656666375
 20
-7.2345080732787
 30
0.0
 10
14.97603039314736
 20
-7.21186571231879
 30
0.0
 10
14.98506882305666
 20
-7.227685489361142
 30
0.0
 10
14.99644007677499
 20
-7.242932159255588
 30
0.0
 10
15.0105245426
 20
-7.257130236629841
 30
0.0
 10
15.04842872166096
 20
-7.295333171986638
 30
0.0
 10
15.09887224947862
 20
-7.320652557671059
 30
0.0
 10
15.14890509258541
 20
-7.326594862474571
 30
0.0
 10
15.1566104803182
 20
-7.327518903074228
 30
0.0
 10
15.16429567044222
 20
-7.327965775167513
 30
0.0
 10
15.17194046534875
 20
-7.327965775167513
 30
0.0
 10
15.21477622720931
 20
-7.327965775167513
 30
0.0
 10
15.25611568288931
 20
-7.313711312802196
 30
0.0
 10
15.29028498746819
 20
-7.286797157594669
 30
0.0
 10
15.30537933373014
 20
-7.274906657018467
 30
0.0
 10
15.31840005882847
 20
-7.261079710704735
 30
0.0
 10
15.32910142519027
 20
-7.245758141344544
 30
0.0
 10
15.33979942528403
 20
-7.261079710704735
 30
0.0
 10
15.35281846724832
 20
-7.274906657018467
 30
0.0
 10
15.36791281351028
 20
-7.286797157594669
 30
0.0
 10
15.40209221689348
 20
-7.313711312802196
 30
0.0
 10
15.44341989063514
 20
-7.327965775167513
 30
0.0
 10
15.48625733562972
 20
-7.327965775167513
 30
0.0
 10
15.49389371486596
 20
-7.327965775167513
 30
0.0
 10
15.5015856375261
 20
-7.327518903074228
 30
0.0
 10
15.50928765899084
 20
-7.326594862474571
 30
0.0
 10
15.55932555149972
 20
-7.320652557671059
 30
0.0
 10
15.60976739618334
 20
-7.295333171986638
 30
0.0
 10
15.64767325837834
 20
-7.257130236629841
 30
0.0
 10
15.66175772420348
 20
-7.242933842389649
 30
0.0
 10
15.67313066105584
 20
-7.227688014062222
 30
0.0
 10
15.68216909096514
 20
-7.211868237019896
 30
0.0
 10
15.71263045120693
 20
-7.234510597979781
 30
0.0
 10
15.74978563561055
 20
-7.246511343837002
 30
0.0
 10
15.79131696857348
 20
-7.246511343837002
 30
0.0
 10
15.80744812541722
 20
-7.246511343837002
 30
0.0
 10
15.82424243708111
 20
-7.244714598226538
 30
0.0
 10
15.8415366395611
 20
-7.241047049106909
 30
0.0
 10
15.90714688840542
 20
-7.227133421389023
 30
0.0
 10
15.96030026206194
 20
-7.184147860596997
 30
0.0
 10
15.98761752787709
 20
-7.126254781423843
 30
0.0
 10
16.0226536464975
 20
-7.149445002520704
 30
0.0
 10
16.06501476455277
 20
-7.16222840571643
 30
0.0
 10
16.10907921427805
 20
-7.16222840571643
 30
0.0
 10
16.12501176130263
 20
-7.16222840571643
 30
0.0
 10
16.1411799470957
 20
-7.160570518666039
 30
0.0
 10
16.15727407499
 20
-7.157136925180945
 30
0.0
  0
SPLINE
  5
6A
330
41
100
AcDbEntity
  8
Layer 2
 62
     7
420
 16777215
370
     9
100
AcDbSpline
210
0.0
220
0.0
230
1.0
 70
    11
 71
     3
 72
    44
 73
    40
 74
     0
 42
0.0000000001
 43
0.0000000001
 12
1.0
 22
0.0
 32
0.0
 13
1.0
 23
0.0
 33
0.0
 40
0.0
 40
0.0
 40
0.0
 40
0.0
 40
1.0
 40
1.0
 40
1.0
 40
2.0
 40
2.0
 40
2.0
 40
3.0
 40
3.0
 40
3.0
 40
4.0
 40
4.0
 40
4.0
 40
5.0
 40
5.0
 40
5.0
 40
6.0
 40
6.0
 40
6.0
 40
7.0
 40
7.0
 40
7.0
 40
8.0
 40
8.0
 40
8.0
 40
9.0
 40
9.0
 40
9.0
 40
10.0
 40
10.0
 40
10.0
 40
11.0
 40
11.0
 40
11.0
 40
12.0
 40
12.0
 40
12.0
 40
13.0
 40
13.0
 40
13.0
 40
13.0
 10
17.233788106135
 20
-6.321149483934605
 30
0.0
 10
17.22084648833763
 20
-6.311444532937028
 30
0.0
 10
17.20253230661638
 20
-6.309754666339459
 30
0.0
 10
17.18794290057278
 20
-6.316695069641304
 30
0.0
 10
17.17870081144209
 20
-6.321074584468861
 30
0.0
 10
17.17104591773123
 20
-6.325868991842526
 30
0.0
 10
17.16468030471138
 20
-6.339602524215858
 30
0.0
 10
17.11198474351959
 20
-6.405112626583509
 30
0.0
 10
16.88409512415319
 20
-6.717612553645368
 30
0.0
 10
16.92374976263793
 20
-7.177769624071616
 30
0.0
 10
16.96291292597667
 20
-7.632196464586109
 30
0.0
 10
16.60689640932638
 20
-7.761016813103222
 30
0.0
 10
16.59183404261166
 20
-7.766246310631762
 30
0.0
 10
16.56910668338165
 20
-7.773974420674297
 30
0.0
 10
16.55693089158209
 20
-7.798655898549491
 30
0.0
 10
16.56461608170599
 20
-7.82139251501682
 30
0.0
 10
16.57075615476181
 20
-7.839548482136276
 30
0.0
 10
16.58769353282085
 20
-7.851007258825726
 30
0.0
 10
16.60585959874457
 20
-7.851007258825726
 30
0.0
 10
16.61045118846389
 20
-7.851007258825726
 30
0.0
 10
16.61511683608195
 20
-7.850273412374993
 30
0.0
 10
16.61971010893527
 20
-7.848732503141845
 30
0.0
 10
16.86501006703181
 20
-7.76645922709051
 30
0.0
 10
17.0392396893893
 20
-7.554642696442695
 30
0.0
 10
17.13755828244722
 20
-7.219171355711953
 30
0.0
 10
17.21482423466611
 20
-6.955535335151277
 30
0.0
 10
17.22392998993791
 20
-6.681344380892066
 30
0.0
 10
17.22781466335138
 20
-6.564259684617481
 30
0.0
 10
17.22822871433055
 20
-6.551684148478342
 30
0.0
 10
17.22859563755583
 20
-6.54072526260509
 30
0.0
 10
17.2289793921218
 20
-6.531552181970887
 30
0.0
 10
17.23316029713015
 20
-6.431367834806021
 30
0.0
 10
17.23921957975098
 20
-6.394822786499642
 30
0.0
 10
17.24200516662237
 20
-6.382779962290897
 30
0.0
 10
17.24890938254195
 20
-6.373935934365691
 30
0.0
 10
17.25215109874403
 20
-6.362732152486513
 30
0.0
 10
17.25098805310765
 20
-6.351507331431574
 30
0.0
 10
17.24973916763416
 20
-6.339432527675676
 30
0.0
 10
17.24350483907111
 20
-6.328430721883857
 30
0.0
 10
17.233788106135
 20
-6.321149483934605
 30
0.0
  0
SPLINE
  5
6B
330
41
100
AcDbEntity
  8
Layer 2
 62
     7
420
 16777215
370
     9
100
AcDbSpline
210
0.0
220
0.0
230
1.0
 70
    11
 71
     3
 72
    20
 73
    16
 74
     0
 42
0.0000000001
 43
0.0000000001
 12
1.0
 22
0.0
 32
0.0
 13
1.0
 23
0.0
 33
0.0
 40
0.0
 40
0.0
 40
0.0
 40
0.0
 40
1.0
 40
1.0
 40
1.0
 40
2.0
 40
2.0
 40
2.0
 40
3.0
 40
3.0
 40
3.0
 40
4.0
 40
4.0
 40
4.0
 40
5.0
 40
5.0
 40
5.0
 40
5.0
 10
17.14078485044277
 20
-6.561368060300133
 30
0.0
 10
17.13668641900348
 20
-6.684799013552921
 30
0.0
 10
17.12816302811694
 20
-6.941631806237738
 30
0.0
 10
17.05399404257085
 20
-7.194680913552727
 30
0.0
 10
17.04075955944667
 20
-7.239846132954173
 30
0.0
 10
17.02610114490666
 20
-7.282524521780007
 30
0.0
 10
17.01003058088918
 20
-7.322714396896193
 30
0.0
 10
17.01468949597097
 20
-7.275923269991507
 30
0.0
 10
17.01523819767499
 20
-7.22519865878553
 30
0.0
 10
17.01050859096265
 20
-7.170285568467963
 30
0.0
 10
16.9867393717486
 20
-6.894521725428452
 30
0.0
 10
17.06899749959348
 20
-6.673075143248802
 30
0.0
 10
17.14163988254596
 20
-6.5364627255948
 30
0.0
 10
17.14136384855985
 20
-6.543881980537081
 30
0.0
 10
17.14108781457389
 20
-6.552205078470327
 30
0.0
 10
17.14078485044277
 20
-6.561368060300133
 30
0.0
  0
SPLINE
  5
6C
330
41
100
AcDbEntity
  8
Layer 2
 62
     7
420
 16777215
370
     9
100
AcDbSpline
210
0.0
220
0.0
230
1.0
 70
    11
 71
     3
 72
    35
 73
    31
 74
     0
 42
0.0000000001
 43
0.0000000001
 12
1.0
 22
0.0
 32
0.0
 13
1.0
 23
0.0
 33
0.0
 40
0.0
 40
0.0
 40
0.0
 40
0.0
 40
1.0
 40
1.0
 40
1.0
 40
2.0
 40
2.0
 40
2.0
 40
3.0
 40
3.0
 40
3.0
 40
4.0
 40
4.0
 40
4.0
 40
5.0
 40
5.0
 40
5.0
 40
6.0
 40
6.0
 40
6.0
 40
7.0
 40
7.0
 40
7.0
 40
8.0
 40
8.0
 40
8.0
 40
9.0
 40
9.0
 40
9.0
 40
10.0
 40
10.0
 40
10.0
 40
10.0
 10
16.83025503179973
 20
-7.275795351802849
 30
0.0
 10
16.83235053370597
 20
-7.168159770148526
 30
0.0
 10
16.83319546700487
 20
-7.040913151978732
 30
0.0
 10
16.83320556580917
 20
-7.039648276731643
 30
0.0
 10
16.83334863220443
 20
-7.017708624242332
 30
0.0
 10
16.81715014999832
 20
-6.999095686225246
 30
0.0
 10
16.79540742419416
 20
-6.996204903474942
 30
0.0
 10
16.7736545995857
 20
-6.993239221258894
 30
0.0
 10
16.75315907612096
 20
-7.007035871159511
 30
0.0
 10
16.74756938790334
 20
-7.028252617569478
 30
0.0
 10
16.70730882115653
 20
-7.180883422085066
 30
0.0
 10
16.64630026083596
 20
-7.272851550329606
 30
0.0
 10
16.59247195042083
 20
-7.353997968126905
 30
0.0
 10
16.54330423822166
 20
-7.428118142785201
 30
0.0
 10
16.50084381525665
 20
-7.492129414271251
 30
0.0
 10
16.48723231010278
 20
-7.58062102911213
 30
0.0
 10
16.47066690467139
 20
-7.688384528955137
 30
0.0
 10
16.24766847288707
 20
-7.830204563394848
 30
0.0
 10
16.11099798710805
 20
-7.894290734346618
 30
0.0
 10
16.09025840920445
 20
-7.904016724519957
 30
0.0
 10
16.08059721969251
 20
-7.928146134423009
 30
0.0
 10
16.08889843688292
 20
-7.949490799021633
 30
0.0
 10
16.09555691522943
 20
-7.966625103765864
 30
0.0
 10
16.11195400725486
 20
-7.977265877301534
 30
0.0
 10
16.12946533402889
 20
-7.977265877301534
 30
0.0
 10
16.13377752349389
 20
-7.977265877301534
 30
0.0
 10
16.13815703832152
 20
-7.976617029120891
 30
0.0
 10
16.14247596032278
 20
-7.97526715560371
 30
0.0
 10
16.69619508694973
 20
-7.801993553393079
 30
0.0
 10
16.82781112114263
 20
-7.402181888467314
 30
0.0
 10
16.83025503179973
 20
-7.275795351802849
 30
0.0
  0
SPLINE
  5
6D
330
41
100
AcDbEntity
  8
Layer 2
 62
     7
420
 16777215
370
     9
100
AcDbSpline
210
0.0
220
0.0
230
1.0
 70
    11
 71
     3
 72
    17
 73
    13
 74
     0
 42
0.0000000001
 43
0.0000000001
 12
1.0
 22
0.0
 32
0.0
 13
1.0
 23
0.0
 33
0.0
 40
0.0
 40
0.0
 40
0.0
 40
0.0
 40
1.0
 40
1.0
 40
1.0
 40
2.0
 40
2.0
 40
2.0
 40
3.0
 40
3.0
 40
3.0
 40
4.0
 40
4.0
 40
4.0
 40
4.0
 10
16.5733010534625
 20
-7.593865611040655
 30
0.0
 10
16.58399905355625
 20
-7.524305888121489
 30
0.0
 10
16.61975891982305
 20
-7.470391737869299
 30
0.0
 10
16.6650352260725
 20
-7.402138968548747
 30
0.0
 10
16.68952482666471
 20
-7.36522278918182
 30
0.0
 10
16.71668387787819
 20
-7.324277186872122
 30
0.0
 10
16.74316799233293
 20
-7.275359420080981
 30
0.0
 10
16.74155218363416
 20
-7.329241590785992
 30
0.0
 10
16.7020624922875
 20
-7.477194965745158
 30
0.0
 10
16.56639178814084
 20
-7.622586610662993
 30
0.0
 10
16.56949043794763
 20
-7.613062596577038
 30
0.0
 10
16.57181821235445
 20
-7.603485563768118
 30
0.0
 10
16.5733010534625
 20
-7.593865611040655
 30
0.0
  0
SPLINE
  5
6E
330
41
100
AcDbEntity
  8
Layer 2
 62
     7
420
 16777215
370
     9
100
AcDbSpline
210
0.0
220
0.0
230
1.0
 70
    11
 71
     3
 72
    29
 73
    25
 74
     0
 42
0.0000000001
 43
0.0000000001
 12
1.0
 22
0.0
 32
0.0
 13
1.0
 23
0.0
 33
0.0
 40
0.0
 40
0.0
 40
0.0
 40
0.0
 40
1.0
 40
1.0
 40
1.0
 40
2.0
 40
2.0
 40
2.0
 40
3.0
 40
3.0
 40
3.0
 40
4.0
 40
4.0
 40
4.0
 40
5.0
 40
5.0
 40
5.0
 40
6.0
 40
6.0
 40
6.0
 40
7.0
 40
7.0
 40
7.0
 40
8.0
 40
8.0
 40
8.0
 40
8.0
 10
16.19703306778638
 20
-7.582225897439608
 30
0.0
 10
16.17459015821277
 20
-7.59086794927743
 30
0.0
 10
16.16340068297318
 20
-7.616060258340237
 30
0.0
 10
16.17203852697584
 20
-7.638499801645745
 30
0.0
 10
16.17869195592028
 20
-7.6558049444972
 30
0.0
 10
16.19518835285529
 20
-7.666412896918675
 30
0.0
 10
16.21267948202042
 20
-7.666412896918675
 30
0.0
 10
16.21787868313582
 20
-7.666412896918675
 30
0.0
 10
16.2231654072225
 20
-7.665477915947601
 30
0.0
 10
16.2283056986457
 20
-7.66350023342554
 30
0.0
 10
16.33476729429236
 20
-7.62253359194008
 30
0.0
 10
16.40773452211862
 20
-7.527962496869703
 30
0.0
 10
16.43932526531555
 20
-7.390021244874283
 30
0.0
 10
16.46210985110361
 20
-7.290517725437212
 30
0.0
 10
16.4554665209636
 20
-7.203110048931825
 30
0.0
 10
16.45517365563695
 20
-7.199432401007824
 30
0.0
 10
16.4532565659411
 20
-7.175483928016344
 30
0.0
 10
16.43224095405139
 20
-7.157785773361588
 30
0.0
 10
16.40836064798944
 20
-7.15952865868207
 30
0.0
 10
16.384413016565
 20
-7.161420501366996
 30
0.0
 10
16.36651793522499
 20
-7.182372154162294
 30
0.0
 10
16.36836601642431
 20
-7.206320627153773
 30
0.0
 10
16.36860165519291
 20
-7.20933932809276
 30
0.0
 10
16.38941865726333
 20
-7.508190721051379
 30
0.0
 10
16.19703306778638
 20
-7.582225897439608
 30
0.0
  0
SPLINE
  5
6F
330
41
100
AcDbEntity
  8
Layer 2
 62
     7
420
 16777215
370
     9
100
AcDbSpline
210
0.0
220
0.0
230
1.0
 70
    11
 71
     3
 72
    26
 73
    22
 74
     0
 42
0.0000000001
 43
0.0000000001
 12
1.0
 22
0.0
 32
0.0
 13
1.0
 23
0.0
 33
0.0
 40
0.0
 40
0.0
 40
0.0
 40
0.0
 40
1.0
 40
1.0
 40
1.0
 40
2.0
 40
2.0
 40
2.0
 40
3.0
 40
3.0
 40
3.0
 40
4.0
 40
4.0
 40
4.0
 40
5.0
 40
5.0
 40
5.0
 40
6.0
 40
6.0
 40
6.0
 40
7.0
 40
7.0
 40
7.0
 40
7.0
 10
16.17192744012777
 20
-7.274753491818905
 30
0.0
 10
16.16660537022583
 20
-7.251368868737952
 30
0.0
 10
16.14340841659277
 20
-7.236753374116486
 30
0.0
 10
16.11997414105708
 20
-7.242003910820762
 30
0.0
 10
16.09656679566625
 20
-7.247244348720692
 30
0.0
 10
16.08182422442319
 20
-7.270512835551395
 30
0.0
 10
16.08698639658931
 20
-7.2939294381795
 30
0.0
 10
16.0872775787818
 20
-7.295248173716547
 30
0.0
 10
16.11498364856528
 20
-7.426258279647451
 30
0.0
 10
16.02798581520374
 20
-7.481053550580731
 30
0.0
 10
16.00764009067055
 20
-7.493873141158777
 30
0.0
 10
16.00153368029611
 20
-7.520755316819127
 30
0.0
 10
16.01434737990485
 20
-7.541100199785332
 30
0.0
 10
16.02262839948652
 20
-7.554238744267978
 30
0.0
 10
16.0367717750039
 20
-7.561445082751535
 30
0.0
 10
16.05123326285876
 20
-7.561445082751535
 30
0.0
 10
16.05916250742153
 20
-7.561445082751535
 30
0.0
 10
16.06718769062596
 20
-7.55927720608055
 30
0.0
 10
16.0743931875425
 20
-7.554737793517157
 30
0.0
 10
16.21383411198652
 20
-7.466916066032682
 30
0.0
 10
16.17370146342846
 20
-7.282555659760141
 30
0.0
 10
16.17192744012777
 20
-7.274753491818905
 30
0.0
  0
SPLINE
  5
70
330
41
100
AcDbEntity
  8
Layer 2
 62
     7
420
 16777215
370
     9
100
AcDbSpline
210
0.0
220
0.0
230
1.0
 70
    11
 71
     3
 72
    26
 73
    22
 74
     0
 42
0.0000000001
 43
0.0000000001
 12
1.0
 22
0.0
 32
0.0
 13
1.0
 23
0.0
 33
0.0
 40
0.0
 40
0.0
 40
0.0
 40
0.0
 40
1.0
 40
1.0
 40
1.0
 40
2.0
 40
2.0
 40
2.0
 40
3.0
 40
3.0
 40
3.0
 40
4.0
 40
4.0
 40
4.0
 40
5.0
 40
5.0
 40
5.0
 40
6.0
 40
6.0
 40
6.0
 40
7.0
 40
7.0
 40
7.0
 40
7.0
 10
15.90938545670694
 20
-7.268046202584527
 30
0.0
 10
15.88535198544542
 20
-7.268567132576512
 30
0.0
 10
15.86627702712846
 20
-7.288465985016475
 30
0.0
 10
15.86678701674903
 20
-7.312499456278045
 30
0.0
 10
15.8680258034182
 20
-7.371154153613916
 30
0.0
 10
15.86216344748264
 20
-7.434538457662105
 30
0.0
 10
15.85406420637944
 20
-7.452757542308872
 30
0.0
 10
15.83830502216334
 20
-7.465555252144112
 30
0.0
 10
15.83319671028736
 20
-7.48807979371971
 30
0.0
 10
15.84298245171986
 20
-7.506755849264108
 30
0.0
 10
15.8507686298875
 20
-7.521595200715738
 30
0.0
 10
15.86591010390306
 20
-7.53008829518914
 30
0.0
 10
15.88158344828207
 20
-7.53008829518914
 30
0.0
 10
15.88839677496235
 20
-7.53008829518914
 30
0.0
 10
15.89531108968625
 20
-7.528482585294644
 30
0.0
 10
15.9017574931411
 20
-7.525102852099508
 30
0.0
 10
15.91709757697597
 20
-7.517055788152346
 30
0.0
 10
15.95783952006417
 20
-7.495701024749374
 30
0.0
 10
15.95384375980264
 20
-7.310639593140295
 30
0.0
 10
15.95332872077986
 20
-7.28659518150731
 30
0.0
 10
15.93355694496154
 20
-7.268004124233003
 30
0.0
 10
15.90938545670694
 20
-7.268046202584527
 30
0.0
  0
SPLINE
  5
71
330
41
100
AcDbEntity
  8
Layer 2
 62
     7
420
 16777215
370
     9
100
AcDbSpline
210
0.0
220
0.0
230
1.0
 70
    11
 71
     3
 72
    23
 73
    19
 74
     0
 42
0.0000000001
 43
0.0000000001
 12
1.0
 22
0.0
 32
0.0
 13
1.0
 23
0.0
 33
0.0
 40
0.0
 40
0.0
 40
0.0
 40
0.0
 40
1.0
 40
1.0
 40
1.0
 40
2.0
 40
2.0
 40
2.0
 40
3.0
 40
3.0
 40
3.0
 40
4.0
 40
4.0
 40
4.0
 40
5.0
 40
5.0
 40
5.0
 40
6.0
 40
6.0
 40
6.0
 40
6.0
 10
15.41415018930876
 20
-5.563294808948752
 30
0.0
 10
15.41415018930876
 20
-5.563294808948752
 30
0.0
 10
15.41415018930876
 20
-5.760734008444779
 30
0.0
 10
15.41415018930876
 20
-5.760734008444779
 30
0.0
 10
15.41415018930876
 20
-5.784778420077751
 30
0.0
 10
15.4336459311411
 20
-5.804273320342986
 30
0.0
 10
15.45768950120694
 20
-5.804273320342986
 30
0.0
 10
15.48173475440694
 20
-5.804273320342986
 30
0.0
 10
15.50122881310515
 20
-5.784778420077751
 30
0.0
 10
15.50122881310515
 20
-5.760734008444779
 30
0.0
 10
15.50122881310515
 20
-5.760734008444779
 30
0.0
 10
15.50122881310515
 20
-5.563294808948752
 30
0.0
 10
15.50122881310515
 20
-5.563294808948752
 30
0.0
 10
15.50122881310515
 20
-5.539250397315779
 30
0.0
 10
15.48173475440694
 20
-5.519755497050546
 30
0.0
 10
15.45768950120694
 20
-5.519755497050546
 30
0.0
 10
15.4336459311411
 20
-5.519755497050546
 30
0.0
 10
15.41415018930876
 20
-5.539250397315779
 30
0.0
 10
15.41415018930876
 20
-5.563294808948752
 30
0.0
  0
SPLINE
  5
72
330
41
100
AcDbEntity
  8
Layer 2
 62
     7
420
 16777215
370
     9
100
AcDbSpline
210
0.0
220
0.0
230
1.0
 70
    11
 71
     3
 72
    26
 73
    22
 74
     0
 42
0.0000000001
 43
0.0000000001
 12
1.0
 22
0.0
 32
0.0
 13
1.0
 23
0.0
 33
0.0
 40
0.0
 40
0.0
 40
0.0
 40
0.0
 40
1.0
 40
1.0
 40
1.0
 40
2.0
 40
2.0
 40
2.0
 40
3.0
 40
3.0
 40
3.0
 40
4.0
 40
4.0
 40
4.0
 40
5.0
 40
5.0
 40
5.0
 40
6.0
 40
6.0
 40
6.0
 40
7.0
 40
7.0
 40
7.0
 40
7.0
 10
15.65528439060361
 20
-5.545484725878901
 30
0.0
 10
15.63145794483166
 20
-5.54870035350306
 30
0.0
 10
15.6147427404686
 20
-5.570623174651738
 30
0.0
 10
15.61795416025764
 20
-5.594455511393006
 30
0.0
 10
15.61795416025764
 20
-5.594455511393006
 30
0.0
 10
15.64333245563431
 20
-5.782673660934076
 30
0.0
 10
15.64333245563431
 20
-5.782673660934076
 30
0.0
 10
15.64628130650971
 20
-5.804528315153283
 30
0.0
 10
15.66496746085848
 20
-5.820398586217455
 30
0.0
 10
15.6864291032743
 20
-5.820398586217455
 30
0.0
 10
15.6883630243107
 20
-5.820398586217455
 30
0.0
 10
15.69032555862625
 20
-5.820270668028797
 30
0.0
 10
15.6923015580143
 20
-5.82000473284711
 30
0.0
 10
15.71612800378625
 20
-5.816794996192167
 30
0.0
 10
15.73284320814931
 20
-5.794876382878644
 30
0.0
 10
15.7296334714943
 20
-5.771039838302234
 30
0.0
 10
15.7296334714943
 20
-5.771039838302234
 30
0.0
 10
15.70425517611779
 20
-5.582815797791934
 30
0.0
 10
15.70425517611779
 20
-5.582815797791934
 30
0.0
 10
15.70104039006055
 20
-5.558994401422082
 30
0.0
 10
15.67923707143028
 20
-5.542306127204117
 30
0.0
 10
15.65528439060361
 20
-5.545484725878901
 30
0.0
  0
SPLINE
  5
73
330
41
100
AcDbEntity
  8
Layer 2
 62
     7
420
 16777215
370
     9
100
AcDbSpline
210
0.0
220
0.0
230
1.0
 70
    11
 71
     3
 72
    26
 73
    22
 74
     0
 42
0.0000000001
 43
0.0000000001
 12
1.0
 22
0.0
 32
0.0
 13
1.0
 23
0.0
 33
0.0
 40
0.0
 40
0.0
 40
0.0
 40
0.0
 40
1.0
 40
1.0
 40
1.0
 40
2.0
 40
2.0
 40
2.0
 40
3.0
 40
3.0
 40
3.0
 40
4.0
 40
4.0
 40
4.0
 40
5.0
 40
5.0
 40
5.0
 40
6.0
 40
6.0
 40
6.0
 40
7.0
 40
7.0
 40
7.0
 40
7.0
 10
15.87196938652389
 20
-5.546164712039677
 30
0.0
 10
15.8485149133793
 20
-5.551453119260347
 30
0.0
 10
15.83378749034278
 20
-5.574752744071184
 30
0.0
 10
15.83907589756346
 20
-5.598213108184887
 30
0.0
 10
15.83907589756346
 20
-5.598213108184887
 30
0.0
 10
15.88803658427319
 20
-5.81539210395206
 30
0.0
 10
15.88803658427319
 20
-5.81539210395206
 30
0.0
 10
15.89259619444528
 20
-5.835620009100997
 30
0.0
 10
15.9105602842818
 20
-5.849364481845719
 30
0.0
 10
15.93046502769097
 20
-5.849364481845719
 30
0.0
 10
15.9336360522625
 20
-5.849364481845719
 30
0.0
 10
15.93685757085584
 20
-5.849013548393941
 30
0.0
 10
15.94008413885139
 20
-5.848290642314597
 30
0.0
 10
15.96353861199582
 20
-5.842997185691754
 30
0.0
 10
15.97826603503237
 20
-5.819696719313886
 30
0.0
 10
15.97297762781166
 20
-5.796237196767202
 30
0.0
 10
15.97297762781166
 20
-5.796237196767202
 30
0.0
 10
15.92401694110195
 20
-5.57905820100004
 30
0.0
 10
15.92401694110195
 20
-5.57905820100004
 30
0.0
 10
15.91873358328348
 20
-5.555603727855555
 30
0.0
 10
15.89543395847265
 20
-5.54086031504543
 30
0.0
 10
15.87196938652389
 20
-5.546164712039677
 30
0.0
  0
SPLINE
  5
74
330
41
100
AcDbEntity
  8
Layer 2
 62
     7
420
 16777215
370
     9
100
AcDbSpline
210
0.0
220
0.0
230
1.0
 70
    11
 71
     3
 72
    26
 73
    22
 74
     0
 42
0.0000000001
 43
0.0000000001
 12
1.0
 22
0.0
 32
0.0
 13
1.0
 23
0.0
 33
0.0
 40
0.0
 40
0.0
 40
0.0
 40
0.0
 40
1.0
 40
1.0
 40
1.0
 40
2.0
 40
2.0
 40
2.0
 40
3.0
 40
3.0
 40
3.0
 40
4.0
 40
4.0
 40
4.0
 40
5.0
 40
5.0
 40
5.0
 40
6.0
 40
6.0
 40
6.0
 40
7.0
 40
7.0
 40
7.0
 40
7.0
 10
16.04849648687498
 20
-5.497268825991328
 30
0.0
 10
16.0255250732061
 20
-5.504380067400398
 30
0.0
 10
16.01266929524584
 20
-5.528764472113759
 30
0.0
 10
16.01977380411861
 20
-5.551735044215611
 30
0.0
 10
16.01977380411861
 20
-5.551735044215611
 30
0.0
 10
16.09343616631223
 20
-5.78973188362022
 30
0.0
 10
16.09343616631223
 20
-5.78973188362022
 30
0.0
 10
16.09921941494695
 20
-5.808418879536021
 30
0.0
 10
16.1164345101261
 20
-5.820408685021826
 30
0.0
 10
16.13501631016306
 20
-5.820408685021826
 30
0.0
 10
16.13928305500847
 20
-5.820408685021826
 30
0.0
 10
16.14362049148445
 20
-5.819781717583977
 30
0.0
 10
16.14790238453654
 20
-5.818452883242571
 30
0.0
 10
16.17087379820542
 20
-5.811341641833488
 30
0.0
 10
16.18372957616569
 20
-5.786957237120128
 30
0.0
 10
16.17662506729291
 20
-5.763986665018276
 30
0.0
 10
16.17662506729291
 20
-5.763986665018276
 30
0.0
 10
16.10296270509929
 20
-5.525989825613679
 30
0.0
 10
16.10296270509929
 20
-5.525989825613679
 30
0.0
 10
16.0958447311539
 20
-5.503008313140425
 30
0.0
 10
16.07141235711985
 20
-5.49016768338663
 30
0.0
 10
16.04849648687498
 20
-5.497268825991328
 30
0.0
  0
SPLINE
  5
75
330
41
100
AcDbEntity
  8
Layer 2
 62
     7
420
 16777215
370
     9
100
AcDbSpline
210
0.0
220
0.0
230
1.0
 70
    11
 71
     3
 72
    26
 73
    22
 74
     0
 42
0.0000000001
 43
0.0000000001
 12
1.0
 22
0.0
 32
0.0
 13
1.0
 23
0.0
 33
0.0
 40
0.0
 40
0.0
 40
0.0
 40
0.0
 40
1.0
 40
1.0
 40
1.0
 40
2.0
 40
2.0
 40
2.0
 40
3.0
 40
3.0
 40
3.0
 40
4.0
 40
4.0
 40
4.0
 40
5.0
 40
5.0
 40
5.0
 40
6.0
 40
6.0
 40
6.0
 40
7.0
 40
7.0
 40
7.0
 40
7.0
 10
16.3914013891875
 20
-5.849364481845719
 30
0.0
 10
16.39871460668403
 20
-5.849364481845719
 30
0.0
 10
16.40613386162626
 20
-5.847514717512341
 30
0.0
 10
16.4129421389043
 20
-5.843624153129591
 30
0.0
 10
16.43382478320306
 20
-5.831708405542486
 30
0.0
 10
16.44109087294583
 20
-5.805113204239584
 30
0.0
 10
16.42916755125541
 20
-5.784225510538615
 30
0.0
 10
16.42916755125541
 20
-5.784225510538615
 30
0.0
 10
16.19122457214083
 20
-5.367395677118844
 30
0.0
 10
16.19122457214083
 20
-5.367395677118844
 30
0.0
 10
16.17931303238889
 20
-5.346518923789264
 30
0.0
 10
16.1527228804882
 20
-5.339227587035629
 30
0.0
 10
16.13183182051903
 20
-5.351169423200695
 30
0.0
 10
16.11095085935431
 20
-5.363085170787801
 30
0.0
 10
16.10368308647751
 20
-5.389681213657746
 30
0.0
 10
16.11560640816793
 20
-5.410563016389498
 30
0.0
 10
16.11560640816793
 20
-5.410563016389498
 30
0.0
 10
16.35354938728263
 20
-5.827402948613629
 30
0.0
 10
16.35354938728263
 20
-5.827402948613629
 30
0.0
 10
16.36157961988917
 20
-5.841477315634379
 30
0.0
 10
16.37627674651251
 20
-5.849364481845719
 30
0.0
 10
16.3914013891875
 20
-5.849364481845719
 30
0.0
  0
SPLINE
  5
76
330
41
100
AcDbEntity
  8
Layer 2
 62
     7
420
 16777215
370
     9
100
AcDbSpline
210
0.0
220
0.0
230
1.0
 70
    11
 71
     3
 72
   143
 73
   139
 74
     0
 42
0.0000000001
 43
0.0000000001
 12
1.0
 22
0.0
 32
0.0
 13
1.0
 23
0.0
 33
0.0
 40
0.0
 40
0.0
 40
0.0
 40
0.0
 40
1.0
 40
1.0
 40
1.0
 40
2.0
 40
2.0
 40
2.0
 40
3.0
 40
3.0
 40
3.0
 40
4.0
 40
4.0
 40
4.0
 40
5.0
 40
5.0
 40
5.0
 40
6.0
 40
6.0
 40
6.0
 40
7.0
 40
7.0
 40
7.0
 40
8.0
 40
8.0
 40
8.0
 40
9.0
 40
9.0
 40
9.0
 40
10.0
 40
10.0
 40
10.0
 40
11.0
 40
11.0
 40
11.0
 40
12.0
 40
12.0
 40
12.0
 40
13.0
 40
13.0
 40
13.0
 40
14.0
 40
14.0
 40
14.0
 40
15.0
 40
15.0
 40
15.0
 40
16.0
 40
16.0
 40
16.0
 40
17.0
 40
17.0
 40
17.0
 40
18.0
 40
18.0
 40
18.0
 40
19.0
 40
19.0
 40
19.0
 40
20.0
 40
20.0
 40
20.0
 40
21.0
 40
21.0
 40
21.0
 40
22.0
 40
22.0
 40
22.0
 40
23.0
 40
23.0
 40
23.0
 40
24.0
 40
24.0
 40
24.0
 40
25.0
 40
25.0
 40
25.0
 40
26.0
 40
26.0
 40
26.0
 40
27.0
 40
27.0
 40
27.0
 40
28.0
 40
28.0
 40
28.0
 40
29.0
 40
29.0
 40
29.0
 40
30.0
 40
30.0
 40
30.0
 40
31.0
 40
31.0
 40
31.0
 40
32.0
 40
32.0
 40
32.0
 40
33.0
 40
33.0
 40
33.0
 40
34.0
 40
34.0
 40
34.0
 40
35.0
 40
35.0
 40
35.0
 40
36.0
 40
36.0
 40
36.0
 40
37.0
 40
37.0
 40
37.0
 40
38.0
 40
38.0
 40
38.0
 40
39.0
 40
39.0
 40
39.0
 40
40.0
 40
40.0
 40
40.0
 40
41.0
 40
41.0
 40
41.0
 40
42.0
 40
42.0
 40
42.0
 40
43.0
 40
43.0
 40
43.0
 40
44.0
 40
44.0
 40
44.0
 40
45.0
 40
45.0
 40
45.0
 40
46.0
 40
46.0
 40
46.0
 40
46.0
 10
12.94302998703794
 20
-4.787454163383662
 30
0.0
 10
12.92128726123383
 20
-4.823728227106181
 30
0.0
 10
12.91496288499846
 20
-4.866293845949914
 30
0.0
 10
12.92523084433949
 20
-4.907324446529716
 30
0.0
 10
12.93550385308279
 20
-4.948344106738128
 30
0.0
 10
12.96113798483667
 20
-4.982917363491689
 30
0.0
 10
12.99740615758997
 20
-5.004665138698
 30
0.0
 10
13.02232664050184
 20
-5.019605478193297
 30
0.0
 10
13.05021869659903
 20
-5.027263738172299
 30
0.0
 10
13.07854163501588
 20
-5.027263738172299
 30
0.0
 10
13.09144117446183
 20
-5.027263738172299
 30
0.0
 10
13.10443581098222
 20
-5.025674859618422
 30
0.0
 10
13.1172705497668
 20
-5.022459231994262
 30
0.0
 10
13.11761811695048
 20
-5.02237255059011
 30
0.0
 10
13.11794548652541
 20
-5.022238741432235
 30
0.0
 10
13.11829221214202
 20
-5.022149535326977
 30
0.0
 10
13.11600735765382
 20
-5.044366904936396
 30
0.0
 10
13.11745653608058
 20
-5.067114461775128
 30
0.0
 10
13.12305295683447
 20
-5.089474056212717
 30
0.0
 10
13.14517859563754
 20
-5.177816713689177
 30
0.0
 10
13.22475717405672
 20
-5.236927540355686
 30
0.0
 10
13.31196792387694
 20
-5.236927540355686
 30
0.0
 10
13.32757225975946
 20
-5.236927540355686
 30
0.0
 10
13.34342654105002
 20
-5.235030648268573
 30
0.0
 10
13.35923790242209
 20
-5.23107612479152
 30
0.0
 10
13.38661323636239
 20
-5.224220719759753
 30
0.0
 10
13.41142263242626
 20
-5.211631718548119
 30
0.0
 10
13.43275888135455
 20
-5.19474988391308
 30
0.0
 10
13.43344139221644
 20
-5.198308029318708
 30
0.0
 10
13.43416598142984
 20
-5.201861966889181
 30
0.0
 10
13.43504878524497
 20
-5.205389815881719
 30
0.0
 10
13.44768154794221
 20
-5.255848491905996
 30
0.0
 10
13.47920412420965
 20
-5.298361933593835
 30
0.0
 10
13.52381138466975
 20
-5.325111141663355
 30
0.0
 10
13.55446209749339
 20
-5.343484233076702
 30
0.0
 10
13.58876352809607
 20
-5.352902209716818
 30
0.0
 10
13.62359682906208
 20
-5.352902209716818
 30
0.0
 10
13.63946120915706
 20
-5.352902209716818
 30
0.0
 10
13.65544340863633
 20
-5.350946407937575
 30
0.0
 10
13.67123373083258
 20
-5.346997775429713
 30
0.0
 10
13.71072594688035
 20
-5.337108521252427
 30
0.0
 10
13.74535727175902
 20
-5.315017386697617
 30
0.0
 10
13.77116055848607
 20
-5.285166162553095
 30
0.0
 10
13.79460324969209
 20
-5.495803657790942
 30
0.0
 10
13.95984998556431
 20
-5.639826073149922
 30
0.0
 10
14.1054696951475
 20
-5.702255198618306
 30
0.0
 10
14.14409762185472
 20
-5.718816396214657
 30
0.0
 10
14.16994382850041
 20
-5.724875678835398
 30
0.0
 10
14.18811999322861
 20
-5.724875678835398
 30
0.0
 10
14.20721599072125
 20
-5.724869787866181
 30
0.0
 10
14.21785087328777
 20
-5.718178488405417
 30
0.0
 10
14.22592402581277
 20
-5.709946279711503
 30
0.0
 10
14.23907856006902
 20
-5.696525810273569
 30
0.0
 10
14.24272927784806
 20
-5.676722896475123
 30
0.0
 10
14.23542784228999
 20
-5.659083651512497
 30
0.0
 10
14.23024547251528
 20
-5.633152446596783
 30
0.0
 10
14.26021535761111
 20
-5.499155619274069
 30
0.0
 10
14.34280169659779
 20
-5.398508410242331
 30
0.0
 10
14.39693970368014
 20
-5.33253207973971
 30
0.0
 10
14.3959786341311
 20
-5.252154854208432
 30
0.0
 10
14.3813286352614
 20
-5.187930666263658
 30
0.0
 10
14.39347244751389
 20
-5.189898249981335
 30
0.0
 10
14.40580477078111
 20
-5.190976297347611
 30
0.0
 10
14.41825154716457
 20
-5.190976297347611
 30
0.0
 10
14.43707740164041
 20
-5.190976297347611
 30
0.0
 10
14.45613552861682
 20
-5.188679660920924
 30
0.0
 10
14.47502534218696
 20
-5.183950054208632
 30
0.0
 10
14.53508124862888
 20
-5.168913776071829
 30
0.0
 10
14.5856846741825
 20
-5.131396717845026
 30
0.0
 10
14.61751442241611
 20
-5.078302253880716
 30
0.0
 10
14.64772667881668
 20
-5.027915111054047
 30
0.0
 10
14.65732727550249
 20
-4.969241899243469
 30
0.0
 10
14.64540563694625
 20
-4.912064993613436
 30
0.0
 10
14.65658501338152
 20
-4.911736782471469
 30
0.0
 10
14.66782834891112
 20
-4.910427304171763
 30
0.0
 10
14.67895891445861
 20
-4.907643400434343
 30
0.0
 10
14.71997857466694
 20
-4.897369550124052
 30
0.0
 10
14.75455183142056
 20
-4.871742150906408
 30
0.0
 10
14.77629455722472
 20
-4.835468087183876
 30
0.0
 10
14.79804233243097
 20
-4.799199914430574
 30
0.0
 10
14.80436081769722
 20
-4.756628404617623
 30
0.0
 10
14.7940936999232
 20
-4.71560874440921
 30
0.0
 10
14.79051030750654
 20
-4.701292847650671
 30
0.0
 10
14.78496438077458
 20
-4.687855546872129
 30
0.0
 10
14.77788848518068
 20
-4.675460947644575
 30
0.0
 10
14.84003989352904
 20
-4.654073363127382
 30
0.0
 10
14.88488531745876
 20
-4.595158621579028
 30
0.0
 10
14.88488531745876
 20
-4.52583790369657
 30
0.0
 10
14.88488531745876
 20
-4.484522853460387
 30
0.0
 10
14.8689022764125
 20
-4.446948568675503
 30
0.0
 10
14.84287765755638
 20
-4.418763647251682
 30
0.0
 10
14.89511540628347
 20
-4.397577197254829
 30
0.0
 10
14.93209049534264
 20
-4.346374575975434
 30
0.0
 10
14.93209049534264
 20
-4.286623316798606
 30
0.0
 10
14.93209049534264
 20
-4.240969988519383
 30
0.0
 10
14.91044539131402
 20
-4.200364379290047
 30
0.0
 10
14.87696785483429
 20
-4.17424466335947
 30
0.0
 10
14.89706784179457
 20
-4.14966333196095
 30
0.0
 10
14.90915947689112
 20
-4.11829476246012
 30
0.0
 10
14.90915947689112
 20
-4.084142289221896
 30
0.0
 10
14.90915947689112
 20
-4.024065343604194
 30
0.0
 10
14.87176697058486
 20
-3.972654855268236
 30
0.0
 10
14.81907814192932
 20
-3.951683004864195
 30
0.0
 10
14.83094255392765
 20
-3.930823082875236
 30
0.0
 10
14.83778112761875
 20
-3.906885550255159
 30
0.0
 10
14.83778112761875
 20
-3.881654529108952
 30
0.0
 10
14.83778112761875
 20
-3.81181961377077
 30
0.0
 10
14.78728037324292
 20
-3.75366144098296
 30
0.0
 10
14.72090093213263
 20
-3.741499955822898
 30
0.0
 10
14.72621963576638
 20
-3.72646788552125
 30
0.0
 10
14.72914492276499
 20
-3.710423410081741
 30
0.0
 10
14.72914492276499
 20
-3.693857163083193
 30
0.0
 10
14.72914492276499
 20
-3.615227872274608
 30
0.0
 10
14.66517236336237
 20
-3.551255312871982
 30
0.0
 10
14.5865363400175
 20
-3.551255312871982
 30
0.0
 10
14.58140278113056
 20
-3.551255312871982
 30
0.0
 10
14.57633318133778
 20
-3.551720699439935
 30
0.0
 10
14.57128546228791
 20
-3.552271084277991
 30
0.0
 10
14.57135952018653
 20
-3.550532406792652
 30
0.0
 10
14.57164396984293
 20
-3.548840857061021
 30
0.0
 10
14.57164396984293
 20
-3.547087872936155
 30
0.0
 10
14.57164396984293
 20
-3.480698333021488
 30
0.0
 10
14.51763556408332
 20
-3.42668992726188
 30
0.0
 10
14.45125275670486
 20
-3.42668992726188
 30
0.0
 10
14.41642702984207
 20
-3.42668992726188
 30
0.0
 10
14.38433134642681
 20
-3.441747244574433
 30
0.0
 10
14.36191200073015
 20
-3.466672776888509
 30
0.0
 10
14.20611185477709
 20
-3.357699103655427
 30
0.0
 10
14.01679125242582
 20
-3.293513627794052
 30
0.0
 10
13.81265822876791
 20
-3.293513627794052
 30
0.0
 10
13.28286148655454
 20
-3.293513627794052
 30
0.0
 10
12.85184451613193
 20
-3.724537330752936
 30
0.0
 10
12.85184451613193
 20
-4.254334072966255
 30
0.0
 10
12.85184451613193
 20
-4.432131097966677
 30
0.0
 10
12.90056872250605
 20
-4.598684787437492
 30
0.0
 10
12.98509655663252
 20
-4.741674600049842
 30
0.0
 10
12.96842343062109
 20
-4.753916875644841
 30
0.0
 10
12.95398803134417
 20
-4.76918121844695
 30
0.0
 10
12.94302998703794
 20
-4.787454163383662
 30
0.0
  0
SPLINE
  5
77
330
41
100
AcDbEntity
  8
Layer 2
 62
     7
420
 16777215
370
     9
100
AcDbSpline
210
0.0
220
0.0
230
1.0
 70
    11
 71
     3
 72
    23
 73
    19
 74
     0
 42
0.0000000001
 43
0.0000000001
 12
1.0
 22
0.0
 32
0.0
 13
1.0
 23
0.0
 33
0.0
 40
0.0
 40
0.0
 40
0.0
 40
0.0
 40
1.0
 40
1.0
 40
1.0
 40
2.0
 40
2.0
 40
2.0
 40
3.0
 40
3.0
 40
3.0
 40
4.0
 40
4.0
 40
4.0
 40
5.0
 40
5.0
 40
5.0
 40
6.0
 40
6.0
 40
6.0
 40
6.0
 10
13.09612281185339
 20
-4.937985258157747
 30
0.0
 10
13.07765378179849
 20
-4.942598728619815
 30
0.0
 10
13.05850476558291
 20
-4.939776954366013
 30
0.0
 10
13.04218341459025
 20
-4.929976064726954
 30
0.0
 10
13.02586122203062
 20
-4.920192006428502
 30
0.0
 10
13.01432249647324
 20
-4.904634798299727
 30
0.0
 10
13.00970397660901
 20
-4.886176708616277
 30
0.0
 10
13.00508040734258
 20
-4.867713569530628
 30
0.0
 10
13.00792911174135
 20
-4.848553612943609
 30
0.0
 10
13.01771401160684
 20
-4.832231420383967
 30
0.0
 10
13.02178719603519
 20
-4.825436608178418
 30
0.0
 10
13.02713282981393
 20
-4.819809891011434
 30
0.0
 10
13.03301285865715
 20
-4.814844645530532
 30
0.0
 10
13.06074754171959
 20
-4.853313516069016
 30
0.0
 10
13.09121310979653
 20
-4.889654905153987
 30
0.0
 10
13.1241974879962
 20
-4.923577630592856
 30
0.0
 10
13.11610161316124
 20
-4.93032194877656
 30
0.0
 10
13.10664744913882
 20
-4.93535283648584
 30
0.0
 10
13.09612281185339
 20
-4.937985258157747
 30
0.0
  0
SPLINE
  5
78
330
41
100
AcDbEntity
  8
Layer 2
 62
     7
420
 16777215
370
     9
100
AcDbSpline
210
0.0
220
0.0
230
1.0
 70
    11
 71
     3
 72
    20
 73
    16
 74
     0
 42
0.0000000001
 43
0.0000000001
 12
1.0
 22
0.0
 32
0.0
 13
1.0
 23
0.0
 33
0.0
 40
0.0
 40
0.0
 40
0.0
 40
0.0
 40
1.0
 40
1.0
 40
1.0
 40
2.0
 40
2.0
 40
2.0
 40
3.0
 40
3.0
 40
3.0
 40
4.0
 40
4.0
 40
4.0
 40
5.0
 40
5.0
 40
5.0
 40
5.0
 10
13.33809016450863
 20
-5.146602992522022
 30
0.0
 10
13.28052613804448
 20
-5.161000521282542
 30
0.0
 10
13.22194634017433
 20
-5.125901285134824
 30
0.0
 10
13.20752693067101
 20
-5.068326318299278
 30
0.0
 10
13.20202813169266
 20
-5.046359735665002
 30
0.0
 10
13.20388967796447
 20
-5.023782175366478
 30
0.0
 10
13.21184332797126
 20
-5.003333779655488
 30
0.0
 10
13.2365508944244
 20
-5.023192236877978
 30
0.0
 10
13.26225908407696
 20
-5.041822847802728
 30
0.0
 10
13.28887532455565
 20
-5.059203731686921
 30
0.0
 10
13.32040295022524
 20
-5.081081108215963
 30
0.0
 10
13.35305238474671
 20
-5.101281241652878
 30
0.0
 10
13.38688842878143
 20
-5.119322755656172
 30
0.0
 10
13.37349657262252
 20
-5.132359470528096
 30
0.0
 10
13.35687309906593
 20
-5.141900315954697
 30
0.0
 10
13.33809016450863
 20
-5.146602992522022
 30
0.0
  0
SPLINE
  5
79
330
41
100
AcDbEntity
  8
Layer 2
 62
     7
420
 16777215
370
     9
100
AcDbSpline
210
0.0
220
0.0
230
1.0
 70
    11
 71
     3
 72
    20
 73
    16
 74
     0
 42
0.0000000001
 43
0.0000000001
 12
1.0
 22
0.0
 32
0.0
 13
1.0
 23
0.0
 33
0.0
 40
0.0
 40
0.0
 40
0.0
 40
0.0
 40
1.0
 40
1.0
 40
1.0
 40
2.0
 40
2.0
 40
2.0
 40
3.0
 40
3.0
 40
3.0
 40
4.0
 40
4.0
 40
4.0
 40
5.0
 40
5.0
 40
5.0
 40
5.0
 10
13.65008599291913
 20
-5.262523801593198
 30
0.0
 10
13.6221829964506
 20
-5.269502075411436
 30
0.0
 10
13.59325497133866
 20
-5.26521849922536
 30
0.0
 10
13.56858864167003
 20
-5.250427117094495
 30
0.0
 10
13.54392820297062
 20
-5.235641625932835
 30
0.0
 10
13.52650019133272
 20
-5.212139183467608
 30
0.0
 10
13.51952191751449
 20
-5.184247127370453
 30
0.0
 10
13.51894628566551
 20
-5.181947124675654
 30
0.0
 10
13.51868455831896
 20
-5.179604202062301
 30
0.0
 10
13.51826209166959
 20
-5.177281477057678
 30
0.0
 10
13.58059527849648
 20
-5.199266574166637
 30
0.0
 10
13.64472689406789
 20
-5.214514927195157
 30
0.0
 10
13.70953765423302
 20
-5.222983616224686
 30
0.0
 10
13.69494319878736
 20
-5.242171344523727
 30
0.0
 10
13.67418931424426
 20
-5.256490607550391
 30
0.0
 10
13.65008599291913
 20
-5.262523801593198
 30
0.0
  0
SPLINE
  5
7A
330
41
100
AcDbEntity
  8
Layer 2
 62
     7
420
 16777215
370
     9
100
AcDbSpline
210
0.0
220
0.0
230
1.0
 70
    11
 71
     3
 72
    23
 73
    19
 74
     0
 42
0.0000000001
 43
0.0000000001
 12
1.0
 22
0.0
 32
0.0
 13
1.0
 23
0.0
 33
0.0
 40
0.0
 40
0.0
 40
0.0
 40
0.0
 40
1.0
 40
1.0
 40
1.0
 40
2.0
 40
2.0
 40
2.0
 40
3.0
 40
3.0
 40
3.0
 40
4.0
 40
4.0
 40
4.0
 40
5.0
 40
5.0
 40
5.0
 40
6.0
 40
6.0
 40
6.0
 40
6.0
 10
14.2754847498154
 20
-5.343272158184984
 30
0.0
 10
14.21001167639709
 20
-5.423062811495886
 30
0.0
 10
14.15893108233707
 20
-5.544336828449091
 30
0.0
 10
14.14972602215585
 20
-5.626902128260073
 30
0.0
 10
14.05734805076736
 20
-5.590245151538599
 30
0.0
 10
13.85366358233679
 20
-5.460328241180516
 30
0.0
 10
13.85558067203263
 20
-5.230551828531412
 30
0.0
 10
13.92165630744486
 20
-5.22872731120895
 30
0.0
 10
13.98756278788389
 20
-5.21983615553001
 30
0.0
 10
14.05210845443445
 20
-5.203678068541345
 30
0.0
 10
14.12420381881695
 20
-5.185628980434785
 30
0.0
 10
14.19281172942445
 20
-5.159240804621428
 30
0.0
 10
14.25724294285874
 20
-5.125376988874728
 30
0.0
 10
14.26226541489778
 20
-5.130272384292071
 30
0.0
 10
14.26748986302416
 20
-5.134891745723356
 30
0.0
 10
14.2728809414225
 20
-5.139272102117943
 30
0.0
 10
14.29216460836306
 20
-5.181574310481071
 30
0.0
 10
14.32753230439362
 20
-5.279844092651198
 30
0.0
 10
14.2754847498154
 20
-5.343272158184984
 30
0.0
  0
SPLINE
  5
7B
330
41
100
AcDbEntity
  8
Layer 2
 62
     7
420
 16777215
370
     9
100
AcDbSpline
210
0.0
220
0.0
230
1.0
 70
    11
 71
     3
 72
    23
 73
    19
 74
     0
 42
0.0000000001
 43
0.0000000001
 12
1.0
 22
0.0
 32
0.0
 13
1.0
 23
0.0
 33
0.0
 40
0.0
 40
0.0
 40
0.0
 40
0.0
 40
1.0
 40
1.0
 40
1.0
 40
2.0
 40
2.0
 40
2.0
 40
3.0
 40
3.0
 40
3.0
 40
4.0
 40
4.0
 40
4.0
 40
5.0
 40
5.0
 40
5.0
 40
6.0
 40
6.0
 40
6.0
 40
6.0
 10
14.54283544724944
 20
-5.033524996880411
 30
0.0
 10
14.52295763398514
 20
-5.066667589681843
 30
0.0
 10
14.49136689078834
 20
-5.090090083279165
 30
0.0
 10
14.45388181210875
 20
-5.099476080372116
 30
0.0
 10
14.41467152101611
 20
-5.109283702547423
 30
0.0
 10
14.37437729158819
 20
-5.10230206246106
 30
0.0
 10
14.34164370036362
 20
-5.081660106333061
 30
0.0
 10
14.34054293068751
 20
-5.079605841211206
 30
0.0
 10
14.33968284918223
 20
-5.078053150039636
 30
0.0
 10
14.33900791242361
 20
-5.076855600155012
 30
0.0
 10
14.41574872681541
 20
-5.025652978875617
 30
0.0
 10
14.48498444642776
 20
-4.962547233514568
 30
0.0
 10
14.54510767823222
 20
-4.88877883387507
 30
0.0
 10
14.5512157717407
 20
-4.899776431831734
 30
0.0
 10
14.55598072426834
 20
-4.911557528693934
 30
0.0
 10
14.55909452228181
 20
-4.923991681571932
 30
0.0
 10
14.56847967780764
 20
-4.961476760251571
 30
0.0
 10
14.56270821111139
 20
-5.00037651310975
 30
0.0
 10
14.54283544724944
 20
-5.033524996880411
 30
0.0
  0
SPLINE
  5
7C
330
41
100
AcDbEntity
  8
Layer 2
 62
     7
420
 16777215
370
     9
100
AcDbSpline
210
0.0
220
0.0
230
1.0
 70
    11
 71
     3
 72
    17
 73
    13
 74
     0
 42
0.0000000001
 43
0.0000000001
 12
1.0
 22
0.0
 32
0.0
 13
1.0
 23
0.0
 33
0.0
 40
0.0
 40
0.0
 40
0.0
 40
0.0
 40
1.0
 40
1.0
 40
1.0
 40
2.0
 40
2.0
 40
2.0
 40
3.0
 40
3.0
 40
3.0
 40
4.0
 40
4.0
 40
4.0
 40
4.0
 10
14.65781033497807
 20
-4.823169426597815
 30
0.0
 10
14.63794262051834
 20
-4.828130464243562
 30
0.0
 10
14.61739155362958
 20
-4.824009310494426
 30
0.0
 10
14.60098099653182
 20
-4.813078196333183
 30
0.0
 10
14.6270779901525
 20
-4.773761867794822
 30
0.0
 10
14.65029514139431
 20
-4.732410630176332
 30
0.0
 10
14.67061393578251
 20
-4.68952184959283
 30
0.0
 10
14.68976463513223
 20
-4.698451717355156
 30
0.0
 10
14.7043119628243
 20
-4.715548993150037
 30
0.0
 10
14.70962056765362
 20
-4.736756482322662
 30
0.0
 10
14.71916057151318
 20
-4.774863479037953
 30
0.0
 10
14.69591817326043
 20
-4.813629422738257
 30
0.0
 10
14.65781033497807
 20
-4.823169426597815
 30
0.0
  0
SPLINE
  5
7D
330
41
100
AcDbEntity
  8
Layer 2
 62
     7
420
 16777215
370
     9
100
AcDbSpline
210
0.0
220
0.0
230
1.0
 70
    11
 71
     3
 72
    17
 73
    13
 74
     0
 42
0.0000000001
 43
0.0000000001
 12
1.0
 22
0.0
 32
0.0
 13
1.0
 23
0.0
 33
0.0
 40
0.0
 40
0.0
 40
0.0
 40
0.0
 40
1.0
 40
1.0
 40
1.0
 40
2.0
 40
2.0
 40
2.0
 40
3.0
 40
3.0
 40
3.0
 40
4.0
 40
4.0
 40
4.0
 40
4.0
 10
14.72656299511487
 20
-4.597088334780336
 30
0.0
 10
14.72120726253181
 20
-4.597088334780336
 30
0.0
 10
14.7159861806736
 20
-4.596239193646397
 30
0.0
 10
14.71085262178652
 20
-4.595047534730977
 30
0.0
 10
14.72753921287042
 20
-4.551202734000652
 30
0.0
 10
14.74108844206403
 20
-4.50584647888325
 30
0.0
 10
14.75125793806251
 20
-4.459221140683616
 30
0.0
 10
14.7783597627179
 20
-4.469309846247155
 30
0.0
 10
14.79780837679654
 20
-4.495263773472705
 30
0.0
 10
14.79780837679654
 20
-4.52583790369657
 30
0.0
 10
14.79780837679654
 20
-4.565124777388847
 30
0.0
 10
14.76585071037418
 20
-4.597088334780336
 30
0.0
 10
14.72656299511487
 20
-4.597088334780336
 30
0.0
  0
SPLINE
  5
7E
330
41
100
AcDbEntity
  8
Layer 2
 62
     7
420
 16777215
370
     9
100
AcDbSpline
210
0.0
220
0.0
230
1.0
 70
    11
 71
     3
 72
    23
 73
    19
 74
     0
 42
0.0000000001
 43
0.0000000001
 12
1.0
 22
0.0
 32
0.0
 13
1.0
 23
0.0
 33
0.0
 40
0.0
 40
0.0
 40
0.0
 40
0.0
 40
1.0
 40
1.0
 40
1.0
 40
2.0
 40
2.0
 40
2.0
 40
3.0
 40
3.0
 40
3.0
 40
4.0
 40
4.0
 40
4.0
 40
5.0
 40
5.0
 40
5.0
 40
6.0
 40
6.0
 40
6.0
 40
6.0
 10
14.78948191259514
 20
-4.346502494164093
 30
0.0
 10
14.78249522310653
 20
-4.346502494164093
 30
0.0
 10
14.77569367836486
 20
-4.345161877884253
 30
0.0
 10
14.76923380983751
 20
-4.342838311312599
 30
0.0
 10
14.77191335926305
 20
-4.313672122731027
 30
0.0
 10
14.77347194140389
 20
-4.284186980244852
 30
0.0
 10
14.77347194140389
 20
-4.254334072966255
 30
0.0
 10
14.77347194140389
 20
-4.245892314081705
 30
0.0
 10
14.77305115788848
 20
-4.237552384807865
 30
0.0
 10
14.77283235046055
 20
-4.229162803079222
 30
0.0
 10
14.77819818184806
 20
-4.227613478175777
 30
0.0
 10
14.78377608812722
 20
-4.226744139433107
 30
0.0
 10
14.78948191259514
 20
-4.226744139433107
 30
0.0
 10
14.82249827034194
 20
-4.226744139433107
 30
0.0
 10
14.84936108996057
 20
-4.25360695905177
 30
0.0
 10
14.84936108996057
 20
-4.286623316798606
 30
0.0
 10
14.84936108996057
 20
-4.319639674545442
 30
0.0
 10
14.82249827034194
 20
-4.346502494164093
 30
0.0
 10
14.78948191259514
 20
-4.346502494164093
 30
0.0
  0
SPLINE
  5
7F
330
41
100
AcDbEntity
  8
Layer 2
 62
     7
420
 16777215
370
     9
100
AcDbSpline
210
0.0
220
0.0
230
1.0
 70
    11
 71
     3
 72
    17
 73
    13
 74
     0
 42
0.0000000001
 43
0.0000000001
 12
1.0
 22
0.0
 32
0.0
 13
1.0
 23
0.0
 33
0.0
 40
0.0
 40
0.0
 40
0.0
 40
0.0
 40
1.0
 40
1.0
 40
1.0
 40
2.0
 40
2.0
 40
2.0
 40
3.0
 40
3.0
 40
3.0
 40
4.0
 40
4.0
 40
4.0
 40
4.0
 10
14.7669396981118
 20
-4.143975180400704
 30
0.0
 10
14.76240365181666
 20
-4.10451746860119
 30
0.0
 10
14.75546577321582
 20
-4.065796969520546
 30
0.0
 10
14.74627922750917
 20
-4.027928136274921
 30
0.0
 10
14.75274246230459
 20
-4.025602045002188
 30
0.0
 10
14.7595490564486
 20
-4.024263111856422
 30
0.0
 10
14.76655089414375
 20
-4.024263111856422
 30
0.0
 10
14.79956725189054
 20
-4.024263111856422
 30
0.0
 10
14.82643007150917
 20
-4.051125931475061
 30
0.0
 10
14.82643007150917
 20
-4.084142289221896
 30
0.0
 10
14.82643007150917
 20
-4.117025679377889
 30
0.0
 10
14.79977259424598
 20
-4.143759739240851
 30
0.0
 10
14.7669396981118
 20
-4.143975180400704
 30
0.0
  0
SPLINE
  5
80
330
41
100
AcDbEntity
  8
Layer 2
 62
     7
420
 16777215
370
     9
100
AcDbSpline
210
0.0
220
0.0
230
1.0
 70
    11
 71
     3
 72
    17
 73
    13
 74
     0
 42
0.0000000001
 43
0.0000000001
 12
1.0
 22
0.0
 32
0.0
 13
1.0
 23
0.0
 33
0.0
 40
0.0
 40
0.0
 40
0.0
 40
0.0
 40
1.0
 40
1.0
 40
1.0
 40
2.0
 40
2.0
 40
2.0
 40
3.0
 40
3.0
 40
3.0
 40
4.0
 40
4.0
 40
4.0
 40
4.0
 10
14.75505172223681
 20
-3.881654529108952
 30
0.0
 10
14.75505172223681
 20
-3.90573176185612
 30
0.0
 10
14.74032093293209
 20
-3.926906429914551
 30
0.0
 10
14.71913364136819
 20
-3.936282328203131
 30
0.0
 10
14.70584024855195
 20
-3.89850775046495
 30
0.0
 10
14.69025947654624
 20
-3.861826368299578
 30
0.0
 10
14.67253775801459
 20
-3.82636694146274
 30
0.0
 10
14.67967761270276
 20
-3.82344502073229
 30
0.0
 10
14.6873224076093
 20
-3.8217820842797
 30
0.0
 10
14.69517254487126
 20
-3.8217820842797
 30
0.0
 10
14.72818890261806
 20
-3.8217820842797
 30
0.0
 10
14.75505172223681
 20
-3.848638171362116
 30
0.0
 10
14.75505172223681
 20
-3.881654529108952
 30
0.0
  0
SPLINE
  5
81
330
41
100
AcDbEntity
  8
Layer 2
 62
     7
420
 16777215
370
     9
100
AcDbSpline
210
0.0
220
0.0
230
1.0
 70
    11
 71
     3
 72
    17
 73
    13
 74
     0
 42
0.0000000001
 43
0.0000000001
 12
1.0
 22
0.0
 32
0.0
 13
1.0
 23
0.0
 33
0.0
 40
0.0
 40
0.0
 40
0.0
 40
0.0
 40
1.0
 40
1.0
 40
1.0
 40
2.0
 40
2.0
 40
2.0
 40
3.0
 40
3.0
 40
3.0
 40
4.0
 40
4.0
 40
4.0
 40
4.0
 10
14.64641551738305
 20
-3.693857163083193
 30
0.0
 10
14.64641551738305
 20
-3.712362380520365
 30
0.0
 10
14.63791905664139
 20
-3.729364559240783
 30
0.0
 10
14.62394736079846
 20
-3.740552351346373
 30
0.0
 10
14.60254126180654
 20
-3.706871155645318
 30
0.0
 10
14.57931064549221
 20
-3.674455676758372
 30
0.0
 10
14.55400472488029
 20
-3.643781400057858
 30
0.0
 10
14.56358175768916
 20
-3.637568110670498
 30
0.0
 10
14.57482004381667
 20
-3.633984718253942
 30
0.0
 10
14.5865363400175
 20
-3.633984718253942
 30
0.0
 10
14.61955269776429
 20
-3.633984718253942
 30
0.0
 10
14.64641551738305
 20
-3.660840805336357
 30
0.0
 10
14.64641551738305
 20
-3.693857163083193
 30
0.0
  0
SPLINE
  5
82
330
41
100
AcDbEntity
  8
Layer 2
 62
     7
420
 16777215
370
     9
100
AcDbSpline
210
0.0
220
0.0
230
1.0
 70
    11
 71
     3
 72
    17
 73
    13
 74
     0
 42
0.0000000001
 43
0.0000000001
 12
1.0
 22
0.0
 32
0.0
 13
1.0
 23
0.0
 33
0.0
 40
0.0
 40
0.0
 40
0.0
 40
0.0
 40
1.0
 40
1.0
 40
1.0
 40
2.0
 40
2.0
 40
2.0
 40
3.0
 40
3.0
 40
3.0
 40
4.0
 40
4.0
 40
4.0
 40
4.0
 10
14.45125275670486
 20
-3.509419332643827
 30
0.0
 10
14.47201589848542
 20
-3.509419332643827
 30
0.0
 10
14.48891456446098
 20
-3.526317998619485
 30
0.0
 10
14.48891456446098
 20
-3.547087872936155
 30
0.0
 10
14.48891456446098
 20
-3.554338814472317
 30
0.0
 10
14.48684599269957
 20
-3.561206001442504
 30
0.0
 10
14.4831683447757
 20
-3.567078456182445
 30
0.0
 10
14.46549375399779
 20
-3.549828856755034
 30
0.0
 10
14.44721660122584
 20
-3.53320201693028
 30
0.0
 10
14.42826114542721
 20
-3.517342686237498
 30
0.0
 10
14.43472269708875
 20
-3.512355560013803
 30
0.0
 10
14.44271253447778
 20
-3.509419332643827
 30
0.0
 10
14.45125275670486
 20
-3.509419332643827
 30
0.0
  0
SPLINE
  5
83
330
41
100
AcDbEntity
  8
Layer 2
 62
     7
420
 16777215
370
     9
100
AcDbSpline
210
0.0
220
0.0
230
1.0
 70
    11
 71
     3
 72
    53
 73
    49
 74
     0
 42
0.0000000001
 43
0.0000000001
 12
1.0
 22
0.0
 32
0.0
 13
1.0
 23
0.0
 33
0.0
 40
0.0
 40
0.0
 40
0.0
 40
0.0
 40
1.0
 40
1.0
 40
1.0
 40
2.0
 40
2.0
 40
2.0
 40
3.0
 40
3.0
 40
3.0
 40
4.0
 40
4.0
 40
4.0
 40
5.0
 40
5.0
 40
5.0
 40
6.0
 40
6.0
 40
6.0
 40
7.0
 40
7.0
 40
7.0
 40
8.0
 40
8.0
 40
8.0
 40
9.0
 40
9.0
 40
9.0
 40
10.0
 40
10.0
 40
10.0
 40
11.0
 40
11.0
 40
11.0
 40
12.0
 40
12.0
 40
12.0
 40
13.0
 40
13.0
 40
13.0
 40
14.0
 40
14.0
 40
14.0
 40
15.0
 40
15.0
 40
15.0
 40
16.0
 40
16.0
 40
16.0
 40
16.0
 10
13.81265822876791
 20
-3.376243033176011
 30
0.0
 10
14.29683530538321
 20
-3.376243033176011
 30
0.0
 10
14.69074253602194
 20
-3.770150263814672
 30
0.0
 10
14.69074253602194
 20
-4.254334072966255
 30
0.0
 10
14.69074253602194
 20
-4.258643737730255
 30
0.0
 10
14.69047996710833
 20
-4.262891126533999
 30
0.0
 10
14.69041600801403
 20
-4.267186484658484
 30
0.0
 10
14.68505354289459
 20
-4.274062928866
 30
0.0
 10
14.68163678075014
 20
-4.282546766102087
 30
0.0
 10
14.68123956111167
 20
-4.291922664390666
 30
0.0
 10
14.67993344908013
 20
-4.322787135240105
 30
0.0
 10
14.6770165777518
 20
-4.353182011686436
 30
0.0
 10
14.67288784989945
 20
-4.383151896782288
 30
0.0
 10
14.66343536901096
 20
-4.393045358794741
 30
0.0
 10
14.65872595990749
 20
-4.407181160208716
 30
0.0
 10
14.66156877333709
 20
-4.421624975155926
 30
0.0
 10
14.66227232337471
 20
-4.425196585634037
 30
0.0
 10
14.66351111004375
 20
-4.428498894662349
 30
0.0
 10
14.66498890174959
 20
-4.431652246326242
 30
0.0
 10
14.65547751116916
 20
-4.48147385610831
 30
0.0
 10
14.64218580148695
 20
-4.529811783215337
 30
0.0
 10
14.62523159208722
 20
-4.576230095925439
 30
0.0
 10
14.62257897280652
 20
-4.578111839805981
 30
0.0
 10
14.62005427171458
 20
-4.580235113424338
 30
0.0
 10
14.61780223834055
 20
-4.58276991332069
 30
0.0
 10
14.6084120334125
 20
-4.593340836792802
 30
0.0
 10
14.60527130525404
 20
-4.607188822282309
 30
0.0
 10
14.60779768948014
 20
-4.620070688820609
 30
0.0
 10
14.59632544771805
 20
-4.647057218792775
 30
0.0
 10
14.58343600707652
 20
-4.67320975583756
 30
0.0
 10
14.56955351733874
 20
-4.69868651455671
 30
0.0
 10
14.41675187471598
 20
-4.957963217898572
 30
0.0
 10
14.13477053445402
 20
-5.132418380220252
 30
0.0
 10
13.81265822876791
 20
-5.132418380220252
 30
0.0
 10
13.6815033733077
 20
-5.132418380220252
 30
0.0
 10
13.55708357879388
 20
-5.103311101330822
 30
0.0
 10
13.44521154870725
 20
-5.05153873917167
 30
0.0
 10
13.26919612111073
 20
-4.962670102301053
 30
0.0
 10
13.12332646611943
 20
-4.814668758021134
 30
0.0
 10
13.03403536259945
 20
-4.633824418802684
 30
0.0
 10
13.02914838285238
 20
-4.623923382686977
 30
0.0
 10
13.02093637176722
 20
-4.616866001567865
 30
0.0
 10
13.01146958423932
 20
-4.612983011288393
 30
0.0
 10
12.96221519063591
 20
-4.503390786287784
 30
0.0
 10
12.93457392151388
 20
-4.382065433745715
 30
0.0
 10
12.93457392151388
 20
-4.254334072966255
 30
0.0
 10
12.93457392151388
 20
-3.770150263814672
 30
0.0
 10
13.32848115215256
 20
-3.376243033176011
 30
0.0
 10
13.81265822876791
 20
-3.376243033176011
 30
0.0
  0
SPLINE
  5
84
330
41
100
AcDbEntity
  8
Layer 2
 62
     7
420
 16777215
370
     9
100
AcDbSpline
210
0.0
220
0.0
230
1.0
 70
    11
 71
     3
 72
    56
 73
    52
 74
     0
 42
0.0000000001
 43
0.0000000001
 12
1.0
 22
0.0
 32
0.0
 13
1.0
 23
0.0
 33
0.0
 40
0.0
 40
0.0
 40
0.0
 40
0.0
 40
1.0
 40
1.0
 40
1.0
 40
2.0
 40
2.0
 40
2.0
 40
3.0
 40
3.0
 40
3.0
 40
4.0
 40
4.0
 40
4.0
 40
5.0
 40
5.0
 40
5.0
 40
6.0
 40
6.0
 40
6.0
 40
7.0
 40
7.0
 40
7.0
 40
8.0
 40
8.0
 40
8.0
 40
9.0
 40
9.0
 40
9.0
 40
10.0
 40
10.0
 40
10.0
 40
11.0
 40
11.0
 40
11.0
 40
12.0
 40
12.0
 40
12.0
 40
13.0
 40
13.0
 40
13.0
 40
14.0
 40
14.0
 40
14.0
 40
15.0
 40
15.0
 40
15.0
 40
16.0
 40
16.0
 40
16.0
 40
17.0
 40
17.0
 40
17.0
 40
17.0
 10
14.69775110625318
 20
-5.304160330435075
 30
0.0
 10
14.70608598612486
 20
-5.369006436415526
 30
0.0
 10
14.73425491777513
 20
-5.419874114016718
 30
0.0
 10
14.78147019446321
 20
-5.455350372194175
 30
0.0
 10
14.83438456308305
 20
-5.495111048124701
 30
0.0
 10
14.88996838232404
 20
-5.515094057267725
 30
0.0
 10
14.94736662008305
 20
-5.515089007865539
 30
0.0
 10
14.96701216084681
 20
-5.515089007865539
 30
0.0
 10
14.98687650903846
 20
-5.512745243685155
 30
0.0
 10
15.00690917063639
 20
-5.508057715324386
 30
0.0
 10
15.15406221534931
 20
-5.47360901049136
 30
0.0
 10
15.27136656061889
 20
-5.317124670542385
 30
0.0
 10
15.32909805892223
 20
-5.22518094774173
 30
0.0
 10
15.38683124035944
 20
-5.317124670542385
 30
0.0
 10
15.50414063503124
 20
-5.473612376759484
 30
0.0
 10
15.65129367974431
 20
-5.508057715324386
 30
0.0
 10
15.67132970761029
 20
-5.512750293087341
 30
0.0
 10
15.69118564013166
 20
-5.515089007865539
 30
0.0
 10
15.71082949776125
 20
-5.515089007865539
 30
0.0
 10
15.76822436925221
 20
-5.515089007865539
 30
0.0
 10
15.82381660416361
 20
-5.495105157155497
 30
0.0
 10
15.8767259233811
 20
-5.455350372194175
 30
0.0
 10
15.92394288320333
 20
-5.419874114016718
 30
0.0
 10
15.95211013171959
 20
-5.369000545446308
 30
0.0
 10
15.96044501159112
 20
-5.304160330435075
 30
0.0
 10
15.97767020557472
 20
-5.170141622369568
 30
0.0
 10
15.90840250641514
 20
-4.973642453246788
 30
0.0
 10
15.75456405321057
 20
-4.720126276229798
 30
0.0
 10
15.65268731474708
 20
-4.552229445778051
 30
0.0
 10
15.54849963321736
 20
-4.416924823289693
 30
0.0
 10
15.52671987846389
 20
-4.389074845544075
 30
0.0
 10
15.52671987846389
 20
-4.389074845544075
 30
0.0
 10
15.36930139911083
 20
-4.178471854554472
 30
0.0
 10
15.36930139911083
 20
-4.178471854554472
 30
0.0
 10
15.36161284271874
 20
-4.168184539171685
 30
0.0
 10
15.34958853298473
 20
-4.162051198652256
 30
0.0
 10
15.33674285382876
 20
-4.161876152709864
 30
0.0
 10
15.32384331438278
 20
-4.161546258433847
 30
0.0
 10
15.31171128406875
 20
-4.167491087938426
 30
0.0
 10
15.3037399611543
 20
-4.177549497088876
 30
0.0
 10
15.3037399611543
 20
-4.177549497088876
 30
0.0
 10
15.14918785910777
 20
-4.372628101063886
 30
0.0
 10
15.14918785910777
 20
-4.372628101063886
 30
0.0
 10
15.14403746888014
 20
-4.375358144511349
 30
0.0
 10
15.139339841715
 20
-4.379127523241676
 30
0.0
 10
15.13548546471459
 20
-4.38398588970967
 30
0.0
 10
15.1306498205564
 20
-4.390082201279774
 30
0.0
 10
15.01572542684943
 20
-4.535393897329704
 30
0.0
 10
14.90363711403597
 20
-4.720126276229798
 30
0.0
 10
14.74980034396541
 20
-4.973642453246788
 30
0.0
 10
14.68053264480598
 20
-5.170141622369568
 30
0.0
 10
14.69775110625318
 20
-5.304160330435075
 30
0.0
  0
SPLINE
  5
85
330
41
100
AcDbEntity
  8
Layer 2
 62
     7
420
 16777215
370
     9
100
AcDbSpline
210
0.0
220
0.0
230
1.0
 70
    11
 71
     3
 72
   119
 73
   115
 74
     0
 42
0.0000000001
 43
0.0000000001
 12
1.0
 22
0.0
 32
0.0
 13
1.0
 23
0.0
 33
0.0
 40
0.0
 40
0.0
 40
0.0
 40
0.0
 40
1.0
 40
1.0
 40
1.0
 40
2.0
 40
2.0
 40
2.0
 40
3.0
 40
3.0
 40
3.0
 40
4.0
 40
4.0
 40
4.0
 40
5.0
 40
5.0
 40
5.0
 40
6.0
 40
6.0
 40
6.0
 40
7.0
 40
7.0
 40
7.0
 40
8.0
 40
8.0
 40
8.0
 40
9.0
 40
9.0
 40
9.0
 40
10.0
 40
10.0
 40
10.0
 40
11.0
 40
11.0
 40
11.0
 40
12.0
 40
12.0
 40
12.0
 40
13.0
 40
13.0
 40
13.0
 40
14.0
 40
14.0
 40
14.0
 40
15.0
 40
15.0
 40
15.0
 40
16.0
 40
16.0
 40
16.0
 40
17.0
 40
17.0
 40
17.0
 40
18.0
 40
18.0
 40
18.0
 40
19.0
 40
19.0
 40
19.0
 40
20.0
 40
20.0
 40
20.0
 40
21.0
 40
21.0
 40
21.0
 40
22.0
 40
22.0
 40
22.0
 40
23.0
 40
23.0
 40
23.0
 40
24.0
 40
24.0
 40
24.0
 40
25.0
 40
25.0
 40
25.0
 40
26.0
 40
26.0
 40
26.0
 40
27.0
 40
27.0
 40
27.0
 40
28.0
 40
28.0
 40
28.0
 40
29.0
 40
29.0
 40
29.0
 40
30.0
 40
30.0
 40
30.0
 40
31.0
 40
31.0
 40
31.0
 40
32.0
 40
32.0
 40
32.0
 40
33.0
 40
33.0
 40
33.0
 40
34.0
 40
34.0
 40
34.0
 40
35.0
 40
35.0
 40
35.0
 40
36.0
 40
36.0
 40
36.0
 40
37.0
 40
37.0
 40
37.0
 40
38.0
 40
38.0
 40
38.0
 40
38.0
 10
15.33520783556471
 20
-4.271050960463273
 30
0.0
 10
15.33520783556471
 20
-4.271050960463273
 30
0.0
 10
15.44606577737957
 20
-4.419362842977509
 30
0.0
 10
15.44606577737957
 20
-4.419362842977509
 30
0.0
 10
15.44735169180237
 20
-4.425996915880205
 30
0.0
 10
15.45001272675333
 20
-4.432451735005366
 30
0.0
 10
15.45450164529487
 20
-4.438112114853589
 30
0.0
 10
15.58123827384401
 20
-4.597885298758355
 30
0.0
 10
15.90367289970277
 20
-5.062936923034928
 30
0.0
 10
15.87407330410042
 20
-5.29307857577535
 30
0.0
 10
15.86877479807542
 20
-5.334306103040338
 30
0.0
 10
15.85252750498153
 20
-5.364610931814392
 30
0.0
 10
15.82441748302348
 20
-5.385736788985039
 30
0.0
 10
15.77431394828611
 20
-5.423376715998314
 30
0.0
 10
15.72423397742568
 20
-5.435664436212985
 30
0.0
 10
15.67126069911374
 20
-5.423302658099626
 30
0.0
 10
15.50400261803821
 20
-5.384259838846232
 30
0.0
 10
15.36931486418333
 20
-5.121038710831676
 30
0.0
 10
15.3679868714089
 20
-5.118407130726811
 30
0.0
 10
15.36783707247749
 20
-5.118110899132009
 30
0.0
 10
15.36761826504944
 20
-5.117876943497486
 30
0.0
 10
15.36746341671596
 20
-5.117584919737838
 30
0.0
 10
15.36675313414207
 20
-5.116249352860184
 30
0.0
 10
15.36587453816193
 20
-5.115018981861365
 30
0.0
 10
15.36502623859514
 20
-5.11375831444943
 30
0.0
 10
15.36425536319499
 20
-5.112614624854763
 30
0.0
 10
15.36354171435305
 20
-5.111428015341541
 30
0.0
 10
15.36267994971361
 20
-5.110377739687275
 30
0.0
 10
15.3618821441686
 20
-5.109405729766864
 30
0.0
 10
15.36093622282611
 20
-5.108556588632925
 30
0.0
 10
15.36005089430985
 20
-5.107651062507935
 30
0.0
 10
15.35892151135471
 20
-5.106500640377034
 30
0.0
 10
15.35782915734889
 20
-5.105320763400047
 30
0.0
 10
15.35659205381388
 20
-5.104312566097304
 30
0.0
 10
15.35576563498972
 20
-5.103640154039807
 30
0.0
 10
15.35482812931751
 20
-5.103091452335826
 30
0.0
 10
15.35394448393542
 20
-5.102475425269378
 30
0.0
 10
15.35245659342513
 20
-5.101436089986515
 30
0.0
 10
15.35097711858528
 20
-5.100406011940991
 30
0.0
 10
15.34937982436112
 20
-5.099564444910331
 30
0.0
 10
15.34913745305625
 20
-5.099437368288691
 30
0.0
 10
15.34894557577319
 20
-5.099253906676014
 30
0.0
 10
15.34869983820027
 20
-5.099131037889543
 30
0.0
 10
15.34791213145958
 20
-5.098733818251061
 30
0.0
 10
15.34708402950137
 20
-5.098549515071353
 30
0.0
 10
15.34628622395639
 20
-5.098204472588779
 30
0.0
 10
15.34470744420681
 20
-5.097524486428003
 30
0.0
 10
15.34314212952985
 20
-5.096854599071599
 30
0.0
 10
15.34149602441792
 20
-5.096363965492742
 30
0.0
 10
15.34025723774875
 20
-5.0959953591333
 30
0.0
 10
15.33901508481154
 20
-5.095773185437211
 30
0.0
 10
15.33776619933805
 20
-5.095518190626914
 30
0.0
 10
15.33625979435305
 20
-5.095209335526672
 30
0.0
 10
15.33476685444068
 20
-5.094906371395622
 30
0.0
 10
15.33323183617681
 20
-5.094758255598233
 30
0.0
 10
15.33192909041334
 20
-5.094633703677699
 30
0.0
 10
15.33064317599054
 20
-5.094644644049089
 30
0.0
 10
15.32934211336111
 20
-5.094638753079872
 30
0.0
 10
15.32782224330375
 20
-5.094627812708482
 30
0.0
 10
15.32631752145292
 20
-5.094623604873328
 30
0.0
 10
15.32479260199332
 20
-5.094775086938853
 30
0.0
 10
15.32348985622987
 20
-5.094906371395622
 30
0.0
 10
15.32222582254985
 20
-5.095171465010278
 30
0.0
 10
15.32094495752916
 20
-5.095418044150265
 30
0.0
 10
15.31946548268931
 20
-5.095700810672573
 30
0.0
 10
15.31799947292181
 20
-5.095972636823476
 30
0.0
 10
15.31653514628846
 20
-5.096415301081606
 30
0.0
 10
15.31516507516264
 20
-5.096829352060682
 30
0.0
 10
15.31386232939917
 20
-5.09739909294045
 30
0.0
 10
15.31253938602696
 20
-5.097945269943339
 30
0.0
 10
15.31153623812639
 20
-5.09836100405649
 30
0.0
 10
15.31049942754458
 20
-5.098607583196477
 30
0.0
 10
15.30951311098473
 20
-5.099104107744552
 30
0.0
 10
15.30920341431735
 20
-5.099260639212262
 30
0.0
 10
15.30895767674444
 20
-5.099487862310538
 30
0.0
 10
15.30865471261333
 20
-5.099651126314484
 30
0.0
 10
15.30736038252027
 20
-5.100339528145569
 30
0.0
 10
15.30617040673888
 20
-5.101193718681682
 30
0.0
 10
15.30494676827624
 20
-5.102012563402519
 30
0.0
 10
15.30377194070153
 20
-5.102800270143208
 30
0.0
 10
15.30255503477514
 20
-5.1035299087588
 30
0.0
 10
15.30148119524402
 20
-5.104414395708014
 30
0.0
 10
15.30049151241597
 20
-5.10522650789259
 30
0.0
 10
15.2996280646425
 20
-5.106187577441625
 30
0.0
 10
15.29870739031096
 20
-5.107090578865533
 30
0.0
 10
15.29758642302626
 20
-5.108195556376775
 30
0.0
 10
15.29642842679194
 20
-5.109260138670556
 30
0.0
 10
15.29544211023209
 20
-5.110466945792533
 30
0.0
 10
15.29471163004945
 20
-5.111359848412058
 30
0.0
 10
15.29411411745764
 20
-5.112375619818054
 30
0.0
 10
15.29344927950347
 20
-5.113337530934106
 30
0.0
 10
15.29247979428416
 20
-5.114745472576399
 30
0.0
 10
15.2914985271264
 20
-5.11613489974401
 30
0.0
 10
15.29070240471543
 20
-5.117638780027808
 30
0.0
 10
15.29056102145417
 20
-5.117904715209495
 30
0.0
 10
15.29036241163501
 20
-5.118116790101213
 30
0.0
 10
15.29022607777597
 20
-5.118386091551025
 30
0.0
 10
15.28888125366097
 20
-5.121038710831676
 30
0.0
 10
15.15419854920833
 20
-5.384259838846232
 30
0.0
 10
14.98694046813277
 20
-5.423302658099626
 30
0.0
 10
14.93396887295499
 20
-5.435648446439396
 30
0.0
 10
14.88387712015611
 20
-5.42337166659614
 30
0.0
 10
14.83377863482082
 20
-5.385736788985039
 30
0.0
 10
14.80567029599693
 20
-5.364610931814392
 30
0.0
 10
14.78942805230513
 20
-5.334306103040338
 30
0.0
 10
14.78412281374388
 20
-5.293084466744568
 30
0.0
 10
14.75452490127554
 20
-5.062941972437114
 30
0.0
 10
15.07696457653654
 20
-4.597885298758355
 30
0.0
 10
15.20370120508568
 20
-4.438112114853589
 30
0.0
 10
15.20511167142917
 20
-4.436333042150762
 30
0.0
 10
15.20620570856904
 20
-4.43441763558898
 30
0.0
 10
15.20729469630666
 20
-4.432503912161261
 30
0.0
 10
15.20729469630666
 20
-4.432503912161261
 30
0.0
 10
15.33520783556471
 20
-4.271050960463273
 30
0.0
 10
15.33520783556471
 20
-4.271050960463273
 30
0.0
  0
SPLINE
  5
86
330
41
100
AcDbEntity
  8
Layer 2
 62
     7
420
 16777215
370
     9
100
AcDbSpline
210
0.0
220
0.0
230
1.0
 70
    11
 71
     3
 72
    35
 73
    31
 74
     0
 42
0.0000000001
 43
0.0000000001
 12
1.0
 22
0.0
 32
0.0
 13
1.0
 23
0.0
 33
0.0
 40
0.0
 40
0.0
 40
0.0
 40
0.0
 40
1.0
 40
1.0
 40
1.0
 40
2.0
 40
2.0
 40
2.0
 40
3.0
 40
3.0
 40
3.0
 40
4.0
 40
4.0
 40
4.0
 40
5.0
 40
5.0
 40
5.0
 40
6.0
 40
6.0
 40
6.0
 40
7.0
 40
7.0
 40
7.0
 40
8.0
 40
8.0
 40
8.0
 40
9.0
 40
9.0
 40
9.0
 40
10.0
 40
10.0
 40
10.0
 40
10.0
 10
12.9519960421826
 20
-5.392874960539087
 30
0.0
 10
13.23471207046239
 20
-5.36222424771544
 30
0.0
 10
13.40213930651104
 20
-5.438332203700169
 30
0.0
 10
13.40379214415927
 20
-5.439103079100252
 30
0.0
 10
13.40975043873631
 20
-5.441898764776107
 30
0.0
 10
13.41605377579597
 20
-5.443238539488915
 30
0.0
 10
13.42228221338989
 20
-5.443238539488915
 30
0.0
 10
13.43653162635302
 20
-5.443238539488915
 30
0.0
 10
13.4503711961722
 20
-5.436228286123524
 30
0.0
 10
13.45865726515608
 20
-5.423652749984373
 30
0.0
 10
13.47059405191895
 20
-5.405540544350515
 30
0.0
 10
13.46737842429482
 20
-5.381400194076049
 30
0.0
 10
13.45111009202512
 20
-5.36705063463627
 30
0.0
 10
13.44144806094613
 20
-5.358519669646474
 30
0.0
 10
13.21065166905585
 20
-5.158682845680105
 30
0.0
 10
12.87617506055535
 20
-5.205118831297846
 30
0.0
 10
12.66707931611765
 20
-5.234052747378946
 30
0.0
 10
12.53915187022004
 20
-5.129318888846329
 30
0.0
 10
12.53394930283649
 20
-5.124966304163763
 30
0.0
 10
12.52101778384339
 20
-5.11394850859838
 30
0.0
 10
12.50286265829098
 20
-5.111455787053552
 30
0.0
 10
12.48745524909368
 20
-5.118572077864807
 30
0.0
 10
12.4720419489271
 20
-5.125689210243094
 30
0.0
 10
12.46216700138934
 20
-5.141122708018366
 30
0.0
 10
12.46216700138934
 20
-5.158103847563009
 30
0.0
 10
12.46216700138934
 20
-5.23398373888243
 30
0.0
 10
12.48503658544753
 20
-5.292983478700888
 30
0.0
 10
12.53013279635247
 20
-5.333455278772337
 30
0.0
 10
12.60341897808338
 20
-5.399231316321662
 30
0.0
 10
12.7295766085155
 20
-5.416999321039977
 30
0.0
 10
12.9519960421826
 20
-5.392874960539087
 30
0.0
  0
SPLINE
  5
87
330
41
100
AcDbEntity
  8
Layer 2
 62
     7
420
 16777215
370
     9
100
AcDbSpline
210
0.0
220
0.0
230
1.0
 70
    11
 71
     3
 72
    20
 73
    16
 74
     0
 42
0.0000000001
 43
0.0000000001
 12
1.0
 22
0.0
 32
0.0
 13
1.0
 23
0.0
 33
0.0
 40
0.0
 40
0.0
 40
0.0
 40
0.0
 40
1.0
 40
1.0
 40
1.0
 40
2.0
 40
2.0
 40
2.0
 40
3.0
 40
3.0
 40
3.0
 40
4.0
 40
4.0
 40
4.0
 40
5.0
 40
5.0
 40
5.0
 40
5.0
 10
12.8881227876896
 20
-5.291367670002033
 30
0.0
 10
12.96699444980302
 20
-5.280450862480304
 30
0.0
 10
13.03972267259264
 20
-5.285414424827144
 30
0.0
 10
13.10406383835465
 20
-5.298558018711977
 30
0.0
 10
13.05503414314843
 20
-5.297835954199678
 30
0.0
 10
13.00109390431832
 20
-5.2999668019213
 30
0.0
 10
12.94261004508967
 20
-5.306307167930286
 30
0.0
 10
12.75246723174945
 20
-5.326907887273806
 30
0.0
 10
12.63988912692407
 20
-5.314960160139536
 30
0.0
 10
12.5882926522743
 20
-5.268652092710454
 30
0.0
 10
12.58116037168949
 20
-5.262241876637922
 30
0.0
 10
12.57504302094362
 20
-5.255035538154389
 30
0.0
 10
12.56991451145879
 20
-5.246919465710688
 30
0.0
 10
12.64089395795867
 20
-5.279403953094161
 30
0.0
 10
12.75004351870115
 20
-5.31051668621765
 30
0.0
 10
12.8881227876896
 20
-5.291367670002033
 30
0.0
  0
SPLINE
  5
88
330
41
100
AcDbEntity
  8
Layer 2
 62
     7
420
 16777215
370
     9
100
AcDbSpline
210
0.0
220
0.0
230
1.0
 70
    11
 71
     3
 72
    44
 73
    40
 74
     0
 42
0.0000000001
 43
0.0000000001
 12
1.0
 22
0.0
 32
0.0
 13
1.0
 23
0.0
 33
0.0
 40
0.0
 40
0.0
 40
0.0
 40
0.0
 40
1.0
 40
1.0
 40
1.0
 40
2.0
 40
2.0
 40
2.0
 40
3.0
 40
3.0
 40
3.0
 40
4.0
 40
4.0
 40
4.0
 40
5.0
 40
5.0
 40
5.0
 40
6.0
 40
6.0
 40
6.0
 40
7.0
 40
7.0
 40
7.0
 40
8.0
 40
8.0
 40
8.0
 40
9.0
 40
9.0
 40
9.0
 40
10.0
 40
10.0
 40
10.0
 40
11.0
 40
11.0
 40
11.0
 40
12.0
 40
12.0
 40
12.0
 40
13.0
 40
13.0
 40
13.0
 40
13.0
 10
14.06647989461696
 20
-7.766278290178914
 30
0.0
 10
14.05130055008499
 20
-7.761016813103222
 30
0.0
 10
13.69528319186773
 20
-7.632196464586109
 30
0.0
 10
13.73444803834056
 20
-7.177769624071616
 30
0.0
 10
13.77410183525823
 20
-6.717644533192545
 30
0.0
 10
13.54623998760386
 20
-6.40514460613066
 30
0.0
 10
13.49352254566929
 20
-6.33961262302023
 30
0.0
 10
13.48715524951528
 20
-6.325879090646898
 30
0.0
 10
13.47950203893849
 20
-6.321085524840277
 30
0.0
 10
13.47025910824075
 20
-6.316695069641304
 30
0.0
 10
13.45564866302144
 20
-6.309764765143831
 30
0.0
 10
13.43734962950682
 20
-6.311454631741399
 30
0.0
 10
13.42441390267853
 20
-6.321149483934605
 30
0.0
 10
13.41471400108316
 20
-6.328409682708095
 30
0.0
 10
13.40850660266501
 20
-6.339410646932871
 30
0.0
 10
13.40723583644871
 20
-6.35146525308005
 30
0.0
 10
13.40605595947171
 20
-6.362690074134989
 30
0.0
 10
13.40929851724084
 20
-6.373914895189929
 30
0.0
 10
13.416191792789
 20
-6.382779962290897
 30
0.0
 10
13.41897653809342
 20
-6.39481268769527
 30
0.0
 10
13.42504087011639
 20
-6.43134679563026
 30
0.0
 10
13.42922345825875
 20
-6.531552181970887
 30
0.0
 10
13.42960637125771
 20
-6.5407143222337
 30
0.0
 10
13.42996740351388
 20
-6.55167404967397
 30
0.0
 10
13.43038734546215
 20
-6.5642378038747
 30
0.0
 10
13.43427286044274
 20
-6.681312401344889
 30
0.0
 10
13.44336599220898
 20
-6.955504197171144
 30
0.0
 10
13.52063278599492
 20
-7.219150316536191
 30
0.0
 10
13.61894632965065
 20
-7.554631756071305
 30
0.0
 10
13.79318184297735
 20
-7.76644828671912
 30
0.0
 10
14.03848685047625
 20
-7.848732503141845
 30
0.0
 10
14.04307339079332
 20
-7.850273412374993
 30
0.0
 10
14.04773483057612
 20
-7.851007258825726
 30
0.0
 10
14.05231632149096
 20
-7.851007258825726
 30
0.0
 10
14.07042936869195
 20
-7.851007258825726
 30
0.0
 10
14.08730867862583
 20
-7.8395905604878
 30
0.0
 10
14.09347904809457
 20
-7.821488453658301
 30
0.0
 10
14.10121725694153
 20
-7.798815796285301
 30
0.0
 10
14.08911552304069
 20
-7.774133476843089
 30
0.0
 10
14.06647989461696
 20
-7.766278290178914
 30
0.0
  0
SPLINE
  5
89
330
41
100
AcDbEntity
  8
Layer 2
 62
     7
420
 16777215
370
     9
100
AcDbSpline
210
0.0
220
0.0
230
1.0
 70
    11
 71
     3
 72
    20
 73
    16
 74
     0
 42
0.0000000001
 43
0.0000000001
 12
1.0
 22
0.0
 32
0.0
 13
1.0
 23
0.0
 33
0.0
 40
0.0
 40
0.0
 40
0.0
 40
0.0
 40
1.0
 40
1.0
 40
1.0
 40
2.0
 40
2.0
 40
2.0
 40
3.0
 40
3.0
 40
3.0
 40
4.0
 40
4.0
 40
4.0
 40
5.0
 40
5.0
 40
5.0
 40
5.0
 10
13.64816722008921
 20
-7.322704298091821
 30
0.0
 10
13.63209497293767
 20
-7.282524521780007
 30
0.0
 10
13.61743150899545
 20
-7.239825093778386
 30
0.0
 10
13.60419786743836
 20
-7.194659874376965
 30
0.0
 10
13.53003477286145
 20
-6.941600668257605
 30
0.0
 10
13.52150969884087
 20
-6.68476703400577
 30
0.0
 10
13.51741715837079
 20
-6.561347021124371
 30
0.0
 10
13.51711503580676
 20
-6.552194979665956
 30
0.0
 10
13.51683816025368
 20
-6.543881980537081
 30
0.0
 10
13.51656212626762
 20
-6.536473665966191
 30
0.0
 10
13.5892045092201
 20
-6.673085242053174
 30
0.0
 10
13.67145674609568
 20
-6.894521725428452
 30
0.0
 10
13.64768921001582
 20
-7.170285568467963
 30
0.0
 10
13.64295876173648
 20
-7.22519865878553
 30
0.0
 10
13.64350578030639
 20
-7.275923269991507
 30
0.0
 10
13.64816722008921
 20
-7.322704298091821
 30
0.0
  0
SPLINE
  5
8A
330
41
100
AcDbEntity
  8
Layer 2
 62
     7
420
 16777215
370
     9
100
AcDbSpline
210
0.0
220
0.0
230
1.0
 70
    11
 71
     3
 72
    35
 73
    31
 74
     0
 42
0.0000000001
 43
0.0000000001
 12
1.0
 22
0.0
 32
0.0
 13
1.0
 23
0.0
 33
0.0
 40
0.0
 40
0.0
 40
0.0
 40
0.0
 40
1.0
 40
1.0
 40
1.0
 40
2.0
 40
2.0
 40
2.0
 40
3.0
 40
3.0
 40
3.0
 40
4.0
 40
4.0
 40
4.0
 40
5.0
 40
5.0
 40
5.0
 40
6.0
 40
6.0
 40
6.0
 40
7.0
 40
7.0
 40
7.0
 40
8.0
 40
8.0
 40
8.0
 40
9.0
 40
9.0
 40
9.0
 40
10.0
 40
10.0
 40
10.0
 40
10.0
 10
14.54720486327263
 20
-7.894290734346618
 30
0.0
 10
14.41053437749348
 20
-7.830204563394848
 30
0.0
 10
14.18753005474001
 20
-7.688384528955137
 30
0.0
 10
14.17096380774152
 20
-7.58063196948352
 30
0.0
 10
14.15735819355695
 20
-7.492129414271251
 30
0.0
 10
14.11489272118971
 20
-7.428118142785201
 30
0.0
 10
14.06572500899056
 20
-7.353997968126905
 30
0.0
 10
14.01189669857541
 20
-7.272851550329606
 30
0.0
 10
13.95089318765708
 20
-7.180883422085066
 30
0.0
 10
13.91063346247721
 20
-7.028252617569478
 30
0.0
 10
13.90503704172347
 20
-7.007046811530927
 30
0.0
 10
13.88459117071352
 20
-6.993196301340326
 30
0.0
 10
13.86279542618644
 20
-6.996204903474942
 30
0.0
 10
13.84105270038233
 20
-6.999095686225246
 30
0.0
 10
13.82485253504213
 20
-7.017708624242332
 30
0.0
 10
13.82499644300439
 20
-7.039648276731643
 30
0.0
 10
13.82500654180876
 20
-7.040913151978732
 30
0.0
 10
13.82584642570535
 20
-7.168159770148526
 30
0.0
 10
13.82794108604467
 20
-7.275795351802849
 30
0.0
 10
13.83039593707311
 20
-7.402192828838704
 30
0.0
 10
13.9620229116375
 20
-7.802004493764469
 30
0.0
 10
14.51572520692374
 20
-7.97526715560371
 30
0.0
 10
14.52004581205918
 20
-7.976617029120891
 30
0.0
 10
14.52442027748445
 20
-7.977265877301534
 30
0.0
 10
14.52873583321778
 20
-7.977265877301534
 30
0.0
 10
14.54624884312569
 20
-7.977265877301534
 30
0.0
 10
14.56264425201708
 20
-7.966625103765864
 30
0.0
 10
14.56930441349778
 20
-7.949490799021633
 30
0.0
 10
14.57760563068819
 20
-7.928146134423009
 30
0.0
 10
14.56794275804208
 20
-7.904016724519957
 30
0.0
 10
14.54720486327263
 20
-7.894290734346618
 30
0.0
  0
SPLINE
  5
8B
330
41
100
AcDbEntity
  8
Layer 2
 62
     7
420
 16777215
370
     9
100
AcDbSpline
210
0.0
220
0.0
230
1.0
 70
    11
 71
     3
 72
    17
 73
    13
 74
     0
 42
0.0000000001
 43
0.0000000001
 12
1.0
 22
0.0
 32
0.0
 13
1.0
 23
0.0
 33
0.0
 40
0.0
 40
0.0
 40
0.0
 40
0.0
 40
1.0
 40
1.0
 40
1.0
 40
2.0
 40
2.0
 40
2.0
 40
3.0
 40
3.0
 40
3.0
 40
4.0
 40
4.0
 40
4.0
 40
4.0
 10
13.91502896707834
 20
-7.275349321276608
 30
0.0
 10
13.94151308153333
 20
-7.324266246500732
 30
0.0
 10
13.96867718214889
 20
-7.36522278918182
 30
0.0
 10
13.99316257490596
 20
-7.402128869744375
 30
0.0
 10
14.03843888115542
 20
-7.470391737869299
 30
0.0
 10
14.07420211369041
 20
-7.524305888121489
 30
0.0
 10
14.0848959059489
 20
-7.593865611040655
 30
0.0
 10
14.08637874705694
 20
-7.603485563768118
 30
0.0
 10
14.08870147206153
 20
-7.613052497772665
 30
0.0
 10
14.09180012186847
 20
-7.622576511858647
 30
0.0
 10
13.95614961533056
 20
-7.477173926569397
 30
0.0
 10
13.91663972637515
 20
-7.329209611238816
 30
0.0
 10
13.91502896707834
 20
-7.275349321276608
 30
0.0
  0
SPLINE
  5
8C
330
41
100
AcDbEntity
  8
Layer 2
 62
     7
420
 16777215
370
     9
100
AcDbSpline
210
0.0
220
0.0
230
1.0
 70
    11
 71
     3
 72
    29
 73
    25
 74
     0
 42
0.0000000001
 43
0.0000000001
 12
1.0
 22
0.0
 32
0.0
 13
1.0
 23
0.0
 33
0.0
 40
0.0
 40
0.0
 40
0.0
 40
0.0
 40
1.0
 40
1.0
 40
1.0
 40
2.0
 40
2.0
 40
2.0
 40
3.0
 40
3.0
 40
3.0
 40
4.0
 40
4.0
 40
4.0
 40
5.0
 40
5.0
 40
5.0
 40
6.0
 40
6.0
 40
6.0
 40
7.0
 40
7.0
 40
7.0
 40
8.0
 40
8.0
 40
8.0
 40
8.0
 10
14.24990447835138
 20
-7.159507619506307
 30
0.0
 10
14.22583397814055
 20
-7.157572856902814
 30
0.0
 10
14.20494712600652
 20
-7.175462888840583
 30
0.0
 10
14.20302835317665
 20
-7.199432401007824
 30
0.0
 10
14.20273548785
 20
-7.203110048931825
 30
0.0
 10
14.19609215771
 20
-7.290517725437212
 30
0.0
 10
14.21887674349806
 20
-7.390021244874283
 30
0.0
 10
14.25046832826193
 20
-7.527962496869703
 30
0.0
 10
14.32342882355207
 20
-7.62253359194008
 30
0.0
 10
14.4298904191986
 20
-7.66350023342554
 30
0.0
 10
14.43503576002402
 20
-7.665477915947601
 30
0.0
 10
14.44031911784249
 20
-7.666412896918675
 30
0.0
 10
14.44551663582388
 20
-7.666412896918675
 30
0.0
 10
14.46300776498917
 20
-7.666412896918675
 30
0.0
 10
14.47950584505821
 20
-7.65579400412581
 30
0.0
 10
14.48615759086846
 20
-7.638499801645745
 30
0.0
 10
14.49479543487124
 20
-7.616060258340237
 30
0.0
 10
14.48360764276569
 20
-7.59086794927743
 30
0.0
 10
14.46116305005792
 20
-7.582225897439608
 30
0.0
 10
14.2691713139514
 20
-7.508350618787214
 30
0.0
 10
14.28951703848457
 20
-7.210540244245496
 30
0.0
 10
14.28983010141999
 20
-7.206341666329536
 30
0.0
 10
14.29173204290931
 20
-7.182393193338056
 30
0.0
 10
14.27385884231222
 20
-7.161420501366996
 30
0.0
 10
14.24990447835138
 20
-7.159507619506307
 30
0.0
  0
SPLINE
  5
8D
330
41
100
AcDbEntity
  8
Layer 2
 62
     7
420
 16777215
370
     9
100
AcDbSpline
210
0.0
220
0.0
230
1.0
 70
    11
 71
     3
 72
    26
 73
    22
 74
     0
 42
0.0000000001
 43
0.0000000001
 12
1.0
 22
0.0
 32
0.0
 13
1.0
 23
0.0
 33
0.0
 40
0.0
 40
0.0
 40
0.0
 40
0.0
 40
1.0
 40
1.0
 40
1.0
 40
2.0
 40
2.0
 40
2.0
 40
3.0
 40
3.0
 40
3.0
 40
4.0
 40
4.0
 40
4.0
 40
5.0
 40
5.0
 40
5.0
 40
6.0
 40
6.0
 40
6.0
 40
7.0
 40
7.0
 40
7.0
 40
7.0
 10
14.63021703517681
 20
-7.481053550580731
 30
0.0
 10
14.54350028520361
 20
-7.426438374992004
 30
0.0
 10
14.57074517625417
 20
-7.296119195593292
 30
0.0
 10
14.57121140438916
 20
-7.293951318922305
 30
0.0
 10
14.57646783206264
 20
-7.270544815098573
 30
0.0
 10
14.56179931871833
 20
-7.247287268639259
 30
0.0
 10
14.53839197332751
 20
-7.241961832469238
 30
0.0
 10
14.51496947973015
 20
-7.236604416752066
 30
0.0
 10
14.49161767776347
 20
-7.251315850015013
 30
0.0
 10
14.48627541025277
 20
-7.274753491818905
 30
0.0
 10
14.48450138695221
 20
-7.282555659760141
 30
0.0
 10
14.44436200585778
 20
-7.466916066032682
 30
0.0
 10
14.58380797970403
 20
-7.554737793517157
 30
0.0
 10
14.59101347662055
 20
-7.55927720608055
 30
0.0
 10
14.59904034295904
 20
-7.561445082751535
 30
0.0
 10
14.60696958752194
 20
-7.561445082751535
 30
0.0
 10
14.6214310753768
 20
-7.561434983947164
 30
0.0
 10
14.63557950029624
 20
-7.554238744267978
 30
0.0
 10
14.64385378734167
 20
-7.541100199785332
 30
0.0
 10
14.65666917008457
 20
-7.520755316819127
 30
0.0
 10
14.65056275971013
 20
-7.493873141158777
 30
0.0
 10
14.63021703517681
 20
-7.481053550580731
 30
0.0
  0
SPLINE
  5
8E
330
41
100
AcDbEntity
  8
Layer 2
 62
     7
420
 16777215
370
     9
100
AcDbSpline
210
0.0
220
0.0
230
1.0
 70
    11
 71
     3
 72
    29
 73
    25
 74
     0
 42
0.0000000001
 43
0.0000000001
 12
1.0
 22
0.0
 32
0.0
 13
1.0
 23
0.0
 33
0.0
 40
0.0
 40
0.0
 40
0.0
 40
0.0
 40
1.0
 40
1.0
 40
1.0
 40
2.0
 40
2.0
 40
2.0
 40
3.0
 40
3.0
 40
3.0
 40
4.0
 40
4.0
 40
4.0
 40
5.0
 40
5.0
 40
5.0
 40
6.0
 40
6.0
 40
6.0
 40
7.0
 40
7.0
 40
7.0
 40
8.0
 40
8.0
 40
8.0
 40
8.0
 10
14.80413359459888
 20
-7.452757542308872
 30
0.0
 10
14.79603267036181
 20
-7.434538457662105
 30
0.0
 10
14.79017536382834
 20
-7.371154153613916
 30
0.0
 10
14.7914141504975
 20
-7.312510396649436
 30
0.0
 10
14.79192582325221
 20
-7.288465985016475
 30
0.0
 10
14.77284918180112
 20
-7.268567132576512
 30
0.0
 10
14.74881739367361
 20
-7.268046202584527
 30
0.0
 10
14.74849759820194
 20
-7.268046202584527
 30
0.0
 10
14.74818453526652
 20
-7.26803610378018
 30
0.0
 10
14.74787147233125
 20
-7.26803610378018
 30
0.0
 10
14.72426215085306
 20
-7.26803610378018
 30
0.0
 10
14.70486739706444
 20
-7.286914135411936
 30
0.0
 10
14.70435909057791
 20
-7.31062865276888
 30
0.0
 10
14.70035659778013
 20
-7.495701024749374
 30
0.0
 10
14.74109854086848
 20
-7.517055788152346
 30
0.0
 10
14.75643862470333
 20
-7.525102852099508
 30
0.0
 10
14.76289007756026
 20
-7.528482585294644
 30
0.0
 10
14.76979934288208
 20
-7.53008829518914
 30
0.0
 10
14.77661266956223
 20
-7.53008829518914
 30
0.0
 10
14.79228601394124
 20
-7.53008829518914
 30
0.0
 10
14.80742748795693
 20
-7.521595200715738
 30
0.0
 10
14.81521366612459
 20
-7.506755849264108
 30
0.0
 10
14.82499940755709
 20
-7.48807979371971
 30
0.0
 10
14.819892778815
 20
-7.465555252144112
 30
0.0
 10
14.80413359459888
 20
-7.452757542308872
 30
0.0
  0
SPLINE
  5
8F
330
41
100
AcDbEntity
  8
Layer 2
 62
     7
420
 16777215
370
     9
100
AcDbSpline
210
0.0
220
0.0
230
1.0
 70
    11
 71
     3
 72
    23
 73
    19
 74
     0
 42
0.0000000001
 43
0.0000000001
 12
1.0
 22
0.0
 32
0.0
 13
1.0
 23
0.0
 33
0.0
 40
0.0
 40
0.0
 40
0.0
 40
0.0
 40
1.0
 40
1.0
 40
1.0
 40
2.0
 40
2.0
 40
2.0
 40
3.0
 40
3.0
 40
3.0
 40
4.0
 40
4.0
 40
4.0
 40
5.0
 40
5.0
 40
5.0
 40
6.0
 40
6.0
 40
6.0
 40
6.0
 10
15.15697403727543
 20
-5.563294808948752
 30
0.0
 10
15.15697403727543
 20
-5.563294808948752
 30
0.0
 10
15.15697403727543
 20
-5.760734008444779
 30
0.0
 10
15.15697403727543
 20
-5.760734008444779
 30
0.0
 10
15.15697403727543
 20
-5.784778420077751
 30
0.0
 10
15.17646809597361
 20
-5.804273320342986
 30
0.0
 10
15.20051166603957
 20
-5.804273320342986
 30
0.0
 10
15.22455523610557
 20
-5.804273320342986
 30
0.0
 10
15.24405097793778
 20
-5.784778420077751
 30
0.0
 10
15.24405097793778
 20
-5.760734008444779
 30
0.0
 10
15.24405097793778
 20
-5.760734008444779
 30
0.0
 10
15.24405097793778
 20
-5.563294808948752
 30
0.0
 10
15.24405097793778
 20
-5.563294808948752
 30
0.0
 10
15.24405097793778
 20
-5.539250397315779
 30
0.0
 10
15.22455523610557
 20
-5.519755497050546
 30
0.0
 10
15.20051166603957
 20
-5.519755497050546
 30
0.0
 10
15.17646809597361
 20
-5.519755497050546
 30
0.0
 10
15.15697403727543
 20
-5.539250397315779
 30
0.0
 10
15.15697403727543
 20
-5.563294808948752
 30
0.0
  0
SPLINE
  5
90
330
41
100
AcDbEntity
  8
Layer 2
 62
     7
420
 16777215
370
     9
100
AcDbSpline
210
0.0
220
0.0
230
1.0
 70
    11
 71
     3
 72
    26
 73
    22
 74
     0
 42
0.0000000001
 43
0.0000000001
 12
1.0
 22
0.0
 32
0.0
 13
1.0
 23
0.0
 33
0.0
 40
0.0
 40
0.0
 40
0.0
 40
0.0
 40
1.0
 40
1.0
 40
1.0
 40
2.0
 40
2.0
 40
2.0
 40
3.0
 40
3.0
 40
3.0
 40
4.0
 40
4.0
 40
4.0
 40
5.0
 40
5.0
 40
5.0
 40
6.0
 40
6.0
 40
6.0
 40
7.0
 40
7.0
 40
7.0
 40
7.0
 10
14.953952723665
 20
-5.582815797791934
 30
0.0
 10
14.953952723665
 20
-5.582815797791934
 30
0.0
 10
14.92856264635
 20
-5.771039838302234
 30
0.0
 10
14.92856264635
 20
-5.771039838302234
 30
0.0
 10
14.92535459282916
 20
-5.794866284074272
 30
0.0
 10
14.94206306465584
 20
-5.816794996192167
 30
0.0
 10
14.96589455983015
 20
-5.82000473284711
 30
0.0
 10
14.96787224235221
 20
-5.820270668028797
 30
0.0
 10
14.96982804413139
 20
-5.820398586217455
 30
0.0
 10
14.97176869770404
 20
-5.820398586217455
 30
0.0
 10
14.99322865698597
 20
-5.820398586217455
 30
0.0
 10
15.01191481133472
 20
-5.804528315153283
 30
0.0
 10
15.01486029594207
 20
-5.782673660934076
 30
0.0
 10
15.01486029594207
 20
-5.782673660934076
 30
0.0
 10
15.04024869012291
 20
-5.594455511393006
 30
0.0
 10
15.04024869012291
 20
-5.594455511393006
 30
0.0
 10
15.04346010991195
 20
-5.570623174651738
 30
0.0
 10
15.0267499549511
 20
-5.54870035350306
 30
0.0
 10
15.00291677664291
 20
-5.545489775281086
 30
0.0
 10
14.97907013326208
 20
-5.54224805907898
 30
0.0
 10
14.95716919285625
 20
-5.558984302617723
 30
0.0
 10
14.953952723665
 20
-5.582815797791934
 30
0.0
  0
SPLINE
  5
91
330
41
100
AcDbEntity
  8
Layer 2
 62
     7
420
 16777215
370
     9
100
AcDbSpline
210
0.0
220
0.0
230
1.0
 70
    11
 71
     3
 72
    26
 73
    22
 74
     0
 42
0.0000000001
 43
0.0000000001
 12
1.0
 22
0.0
 32
0.0
 13
1.0
 23
0.0
 33
0.0
 40
0.0
 40
0.0
 40
0.0
 40
0.0
 40
1.0
 40
1.0
 40
1.0
 40
2.0
 40
2.0
 40
2.0
 40
3.0
 40
3.0
 40
3.0
 40
4.0
 40
4.0
 40
4.0
 40
5.0
 40
5.0
 40
5.0
 40
6.0
 40
6.0
 40
6.0
 40
7.0
 40
7.0
 40
7.0
 40
7.0
 10
14.73418085987638
 20
-5.579063250402227
 30
0.0
 10
14.73418085987638
 20
-5.579063250402227
 30
0.0
 10
14.68522522256889
 20
-5.796237196767202
 30
0.0
 10
14.68522522256889
 20
-5.796237196767202
 30
0.0
 10
14.6799368153482
 20
-5.819696719313886
 30
0.0
 10
14.69466423838473
 20
-5.842997185691754
 30
0.0
 10
14.7181237609314
 20
-5.848290642314597
 30
0.0
 10
14.72134527952471
 20
-5.849013548393941
 30
0.0
 10
14.72456511498416
 20
-5.849364481845719
 30
0.0
 10
14.72773782268973
 20
-5.849364481845719
 30
0.0
 10
14.74764256609888
 20
-5.849364481845719
 30
0.0
 10
14.76560497280126
 20
-5.835620009100997
 30
0.0
 10
14.77016626610751
 20
-5.81539210395206
 30
0.0
 10
14.77016626610751
 20
-5.81539210395206
 30
0.0
 10
14.81912190341485
 20
-5.59820721721567
 30
0.0
 10
14.81912190341485
 20
-5.59820721721567
 30
0.0
 10
14.82441031063556
 20
-5.574752744071184
 30
0.0
 10
14.80968288759904
 20
-5.551448069858162
 30
0.0
 10
14.78622336505236
 20
-5.546159662637491
 30
0.0
 10
14.76280087145513
 20
-5.540887245190409
 30
0.0
 10
14.73946253456082
 20
-5.55560877725774
 30
0.0
 10
14.73418085987638
 20
-5.579063250402227
 30
0.0
  0
SPLINE
  5
92
330
41
100
AcDbEntity
  8
Layer 2
 62
     7
420
 16777215
370
     9
100
AcDbSpline
210
0.0
220
0.0
230
1.0
 70
    11
 71
     3
 72
    26
 73
    22
 74
     0
 42
0.0000000001
 43
0.0000000001
 12
1.0
 22
0.0
 32
0.0
 13
1.0
 23
0.0
 33
0.0
 40
0.0
 40
0.0
 40
0.0
 40
0.0
 40
1.0
 40
1.0
 40
1.0
 40
2.0
 40
2.0
 40
2.0
 40
3.0
 40
3.0
 40
3.0
 40
4.0
 40
4.0
 40
4.0
 40
5.0
 40
5.0
 40
5.0
 40
6.0
 40
6.0
 40
6.0
 40
7.0
 40
7.0
 40
7.0
 40
7.0
 10
14.51029373330791
 20
-5.818452883242571
 30
0.0
 10
14.51457730949389
 20
-5.819781717583977
 30
0.0
 10
14.51891474597
 20
-5.820408685021826
 30
0.0
 10
14.52318149081541
 20
-5.820408685021826
 30
0.0
 10
14.54176160771832
 20
-5.820408685021826
 30
0.0
 10
14.55897670289735
 20
-5.808418879536021
 30
0.0
 10
14.56475995153207
 20
-5.78973188362022
 30
0.0
 10
14.56475995153207
 20
-5.78973188362022
 30
0.0
 10
14.6384273631279
 20
-5.551735044215611
 30
0.0
 10
14.6384273631279
 20
-5.551735044215611
 30
0.0
 10
14.64553355513486
 20
-5.528764472113759
 30
0.0
 10
14.63267777717445
 20
-5.504380067400398
 30
0.0
 10
14.60970636350556
 20
-5.497268825991328
 30
0.0
 10
14.58677366192013
 20
-5.490189564129423
 30
0.0
 10
14.56235306982444
 20
-5.503014204109641
 30
0.0
 10
14.55524014528126
 20
-5.525989825613679
 30
0.0
 10
14.55524014528126
 20
-5.525989825613679
 30
0.0
 10
14.48157273368543
 20
-5.763986665018276
 30
0.0
 10
14.48157273368543
 20
-5.763986665018276
 30
0.0
 10
14.47446654167862
 20
-5.786957237120128
 30
0.0
 10
14.48732231963903
 20
-5.811341641833488
 30
0.0
 10
14.51029373330791
 20
-5.818452883242571
 30
0.0
  0
SPLINE
  5
93
330
41
100
AcDbEntity
  8
Layer 2
 62
     7
420
 16777215
370
     9
100
AcDbSpline
210
0.0
220
0.0
230
1.0
 70
    11
 71
     3
 72
    26
 73
    22
 74
     0
 42
0.0000000001
 43
0.0000000001
 12
1.0
 22
0.0
 32
0.0
 13
1.0
 23
0.0
 33
0.0
 40
0.0
 40
0.0
 40
0.0
 40
0.0
 40
1.0
 40
1.0
 40
1.0
 40
2.0
 40
2.0
 40
2.0
 40
3.0
 40
3.0
 40
3.0
 40
4.0
 40
4.0
 40
4.0
 40
5.0
 40
5.0
 40
5.0
 40
6.0
 40
6.0
 40
6.0
 40
7.0
 40
7.0
 40
7.0
 40
7.0
 10
14.52637102986152
 20
-5.351169423200695
 30
0.0
 10
14.5054833361607
 20
-5.339227587035629
 30
0.0
 10
14.47889991679611
 20
-5.346518923789264
 30
0.0
 10
14.46697659510568
 20
-5.367395677118844
 30
0.0
 10
14.46697659510568
 20
-5.367395677118844
 30
0.0
 10
14.22903361599111
 20
-5.784225510538615
 30
0.0
 10
14.22903361599111
 20
-5.784225510538615
 30
0.0
 10
14.21711281900181
 20
-5.805113204239584
 30
0.0
 10
14.22437806717749
 20
-5.831708405542486
 30
0.0
 10
14.24526071147625
 20
-5.843624153129591
 30
0.0
 10
14.25206730562028
 20
-5.847514717512341
 30
0.0
 10
14.25948656056249
 20
-5.849364481845719
 30
0.0
 10
14.26680146119305
 20
-5.849364481845719
 30
0.0
 10
14.28192610386805
 20
-5.849364481845719
 30
0.0
 10
14.29662323049153
 20
-5.841477315634379
 30
0.0
 10
14.30465177996403
 20
-5.827402948613629
 30
0.0
 10
14.30465177996403
 20
-5.827402948613629
 30
0.0
 10
14.54259644221265
 20
-5.410563016389498
 30
0.0
 10
14.54259644221265
 20
-5.410563016389498
 30
0.0
 10
14.55451808076903
 20
-5.389681213657746
 30
0.0
 10
14.54725199102626
 20
-5.363085170787801
 30
0.0
 10
14.52637102986152
 20
-5.351169423200695
 30
0.0
  0
SPLINE
  5
94
330
41
100
AcDbEntity
  8
Layer 2
 62
     7
420
 16777215
370
     9
100
AcDbSpline
210
0.0
220
0.0
230
1.0
 70
    11
 71
     3
 72
    17
 73
    13
 74
     0
 42
0.0000000001
 43
0.0000000001
 12
1.0
 22
0.0
 32
0.0
 13
1.0
 23
0.0
 33
0.0
 40
0.0
 40
0.0
 40
0.0
 40
0.0
 40
1.0
 40
1.0
 40
1.0
 40
2.0
 40
2.0
 40
2.0
 40
3.0
 40
3.0
 40
3.0
 40
4.0
 40
4.0
 40
4.0
 40
4.0
 10
13.81265822876791
 20
-5.054233436803846
 30
0.0
 10
14.25373360834098
 20
-5.054233436803846
 30
0.0
 10
14.6125643251418
 20
-4.69540272000308
 30
0.0
 10
14.6125643251418
 20
-4.254334072966255
 30
0.0
 10
14.6125643251418
 20
-3.813265425929431
 30
0.0
 10
14.25373360834098
 20
-3.454427976592418
 30
0.0
 10
13.81265822876791
 20
-3.454427976592418
 30
0.0
 10
13.37158284919481
 20
-3.454427976592418
 30
0.0
 10
13.01275213239402
 20
-3.813265425929431
 30
0.0
 10
13.01275213239402
 20
-4.254334072966255
 30
0.0
 10
13.01275213239402
 20
-4.69540272000308
 30
0.0
 10
13.37158284919481
 20
-5.054233436803846
 30
0.0
 10
13.81265822876791
 20
-5.054233436803846
 30
0.0
  0
SPLINE
  5
95
330
41
100
AcDbEntity
  8
Layer 2
 62
     7
420
 16777215
370
     9
100
AcDbSpline
210
0.0
220
0.0
230
1.0
 70
    11
 71
     3
 72
    17
 73
    13
 74
     0
 42
0.0000000001
 43
0.0000000001
 12
1.0
 22
0.0
 32
0.0
 13
1.0
 23
0.0
 33
0.0
 40
0.0
 40
0.0
 40
0.0
 40
0.0
 40
1.0
 40
1.0
 40
1.0
 40
2.0
 40
2.0
 40
2.0
 40
3.0
 40
3.0
 40
3.0
 40
4.0
 40
4.0
 40
4.0
 40
4.0
 10
13.81265822876791
 20
-3.537157381974377
 30
0.0
 10
14.20811394274306
 20
-3.537157381974377
 30
0.0
 10
14.52983491975973
 20
-3.85887835899118
 30
0.0
 10
14.52983491975973
 20
-4.254334072966255
 30
0.0
 10
14.52983491975973
 20
-4.649783054405083
 30
0.0
 10
14.20811394274306
 20
-4.971504031421887
 30
0.0
 10
13.81265822876791
 20
-4.971504031421887
 30
0.0
 10
13.41720251479283
 20
-4.971504031421887
 30
0.0
 10
13.09548153777602
 20
-4.649783054405083
 30
0.0
 10
13.09548153777602
 20
-4.254334072966255
 30
0.0
 10
13.09548153777602
 20
-3.85887835899118
 30
0.0
 10
13.41720251479283
 20
-3.537157381974377
 30
0.0
 10
13.81265822876791
 20
-3.537157381974377
 30
0.0
  0
SPLINE
  5
96
330
41
100
AcDbEntity
  8
Layer 2
 62
     7
420
 16777215
370
     9
100
AcDbSpline
210
0.0
220
0.0
230
1.0
 70
    11
 71
     3
 72
   143
 73
   139
 74
     0
 42
0.0000000001
 43
0.0000000001
 12
1.0
 22
0.0
 32
0.0
 13
1.0
 23
0.0
 33
0.0
 40
0.0
 40
0.0
 40
0.0
 40
0.0
 40
1.0
 40
1.0
 40
1.0
 40
2.0
 40
2.0
 40
2.0
 40
3.0
 40
3.0
 40
3.0
 40
4.0
 40
4.0
 40
4.0
 40
5.0
 40
5.0
 40
5.0
 40
6.0
 40
6.0
 40
6.0
 40
7.0
 40
7.0
 40
7.0
 40
8.0
 40
8.0
 40
8.0
 40
9.0
 40
9.0
 40
9.0
 40
10.0
 40
10.0
 40
10.0
 40
11.0
 40
11.0
 40
11.0
 40
12.0
 40
12.0
 40
12.0
 40
13.0
 40
13.0
 40
13.0
 40
14.0
 40
14.0
 40
14.0
 40
15.0
 40
15.0
 40
15.0
 40
16.0
 40
16.0
 40
16.0
 40
17.0
 40
17.0
 40
17.0
 40
18.0
 40
18.0
 40
18.0
 40
19.0
 40
19.0
 40
19.0
 40
20.0
 40
20.0
 40
20.0
 40
21.0
 40
21.0
 40
21.0
 40
22.0
 40
22.0
 40
22.0
 40
23.0
 40
23.0
 40
23.0
 40
24.0
 40
24.0
 40
24.0
 40
25.0
 40
25.0
 40
25.0
 40
26.0
 40
26.0
 40
26.0
 40
27.0
 40
27.0
 40
27.0
 40
28.0
 40
28.0
 40
28.0
 40
29.0
 40
29.0
 40
29.0
 40
30.0
 40
30.0
 40
30.0
 40
31.0
 40
31.0
 40
31.0
 40
32.0
 40
32.0
 40
32.0
 40
33.0
 40
33.0
 40
33.0
 40
34.0
 40
34.0
 40
34.0
 40
35.0
 40
35.0
 40
35.0
 40
36.0
 40
36.0
 40
36.0
 40
37.0
 40
37.0
 40
37.0
 40
38.0
 40
38.0
 40
38.0
 40
39.0
 40
39.0
 40
39.0
 40
40.0
 40
40.0
 40
40.0
 40
41.0
 40
41.0
 40
41.0
 40
42.0
 40
42.0
 40
42.0
 40
43.0
 40
43.0
 40
43.0
 40
44.0
 40
44.0
 40
44.0
 40
45.0
 40
45.0
 40
45.0
 40
46.0
 40
46.0
 40
46.0
 40
46.0
 10
17.67064355116029
 20
-4.741674600090542
 30
0.0
 10
17.7551713852932
 20
-4.598684787481994
 30
0.0
 10
17.80389559167472
 20
-4.432131098013378
 30
0.0
 10
17.80389559168265
 20
-4.254334073012956
 30
0.0
 10
17.8038955917064
 20
-3.724537330799623
 30
0.0
 10
17.37287862130319
 20
-3.293513627821388
 30
0.0
 10
16.84308187908987
 20
-3.293513627797615
 30
0.0
 10
16.63894885543194
 20
-3.293513627788444
 30
0.0
 10
16.44962825307791
 20
-3.357699103641317
 30
0.0
 10
16.29382810712001
 20
-3.466672776867401
 30
0.0
 10
16.27140876142418
 20
-3.441747244552339
 30
0.0
 10
16.23931307800957
 20
-3.426689927238322
 30
0.0
 10
16.20448735114693
 20
-3.426689927236755
 30
0.0
 10
16.13810454376847
 20
-3.426689927233787
 30
0.0
 10
16.08409613800639
 20
-3.480698332990957
 30
0.0
 10
16.08409613800346
 20
-3.547087872905637
 30
0.0
 10
16.08409613800334
 20
-3.548840857030503
 30
0.0
 10
16.08438058765973
 20
-3.550532406762133
 30
0.0
 10
16.0844546455582
 20
-3.552271084247498
 30
0.0
 10
16.07940692650848
 20
-3.551720699409215
 30
0.0
 10
16.0743373267157
 20
-3.551255312841022
 30
0.0
 10
16.06920376782874
 20
-3.551255312840794
 30
0.0
 10
15.9905677444839
 20
-3.551255312837257
 30
0.0
 10
15.92659518507834
 20
-3.615227872237015
 30
0.0
 10
15.92659518507485
 20
-3.6938571630456
 30
0.0
 10
15.92659518507402
 20
-3.710423410044136
 30
0.0
 10
15.92952047207195
 20
-3.726467885483796
 30
0.0
 10
15.93483917570499
 20
-3.741499955785672
 30
0.0
 10
15.86845973459418
 20
-3.753661440942753
 30
0.0
 10
15.81795898021568
 20
-3.811819613728289
 30
0.0
 10
15.81795898021265
 20
-3.881654529066484
 30
0.0
 10
15.81795898021154
 20
-3.90688555021269
 30
0.0
 10
15.82479755390154
 20
-3.930823082833083
 30
0.0
 10
15.83666196589888
 20
-3.95168300482256
 30
0.0
 10
15.78397313724236
 20
-3.972654855224239
 30
0.0
 10
15.74658063093375
 20
-4.024065343558529
 30
0.0
 10
15.74658063093112
 20
-4.08414228917622
 30
0.0
 10
15.74658063092958
 20
-4.118294762414457
 30
0.0
 10
15.75867226602471
 20
-4.149663331915804
 30
0.0
 10
15.7787722529839
 20
-4.174244663315234
 30
0.0
 10
15.74529471650307
 20
-4.20036437924432
 30
0.0
 10
15.72364961247265
 20
-4.240969988472683
 30
0.0
 10
15.72364961247055
 20
-4.286623316751906
 30
0.0
 10
15.7236496124679
 20
-4.346374575928735
 30
0.0
 10
15.76062470152457
 20
-4.397577197209797
 30
0.0
 10
15.81286245025083
 20
-4.418763647208985
 30
0.0
 10
15.78683783139346
 20
-4.446948568631645
 30
0.0
 10
15.77085479034541
 20
-4.484522853415809
 30
0.0
 10
15.77085479034362
 20
-4.52583790365198
 30
0.0
 10
15.77085479034056
 20
-4.595158621534438
 30
0.0
 10
15.81570021426763
 20
-4.654073363084813
 30
0.0
 10
15.877851622615
 20
-4.675460947604797
 30
0.0
 10
15.8707757270207
 20
-4.687855546832048
 30
0.0
 10
15.86522980028791
 20
-4.701292847610325
 30
0.0
 10
15.86164640787082
 20
-4.715608744368713
 30
0.0
 10
15.85137929009486
 20
-4.756628404576658
 30
0.0
 10
15.85769777535916
 20
-4.799199914389899
 30
0.0
 10
15.87944555056389
 20
-4.835468087144187
 30
0.0
 10
15.90118827636626
 20
-4.871742150867665
 30
0.0
 10
15.93576153311874
 20
-4.897369550086864
 30
0.0
 10
15.97678119332666
 20
-4.907643400398999
 30
0.0
 10
15.98791175887403
 20
-4.910427304136925
 30
0.0
 10
15.9991550944036
 20
-4.911736782437136
 30
0.0
 10
16.0103344708389
 20
-4.912064993579595
 30
0.0
 10
15.99841283228001
 20
-4.96924189920911
 30
0.0
 10
16.00801342896319
 20
-5.027915111020093
 30
0.0
 10
16.03822568536154
 20
-5.078302253848126
 30
0.0
 10
16.07005543359277
 20
-5.131396717813876
 30
0.0
 10
16.12065885914459
 20
-5.168913776042952
 30
0.0
 10
16.18071476558596
 20
-5.183950054182446
 30
0.0
 10
16.19960457915582
 20
-5.18867966089561
 30
0.0
 10
16.21866270613209
 20
-5.190976297323131
 30
0.0
 10
16.23748856060792
 20
-5.190976297323977
 30
0.0
 10
16.24993533699138
 20
-5.190976297324533
 30
0.0
 10
16.26226766025876
 20
-5.189898249958825
 30
0.0
 10
16.27441147251125
 20
-5.187930666241678
 30
0.0
 10
16.25976147363862
 20
-5.252154854185796
 30
0.0
 10
16.25880040408598
 20
-5.332532079717035
 30
0.0
 10
16.3129384111654
 20
-5.398508410222083
 30
0.0
 10
16.39552475014764
 20
-5.499155619257534
 30
0.0
 10
16.42549463523751
 20
-5.633152446581599
 30
0.0
 10
16.42031226546154
 20
-5.659083651497073
 30
0.0
 10
16.41301082990278
 20
-5.676722896459371
 30
0.0
 10
16.41666154768084
 20
-5.696525810257981
 30
0.0
 10
16.42981608193653
 20
-5.709946279696497
 30
0.0
 10
16.43788923446126
 20
-5.718178488390777
 30
0.0
 10
16.44852411702737
 20
-5.724869787852033
 30
0.0
 10
16.46762011452001
 20
-5.724875678822096
 30
0.0
 10
16.48579627924818
 20
-5.724875678822918
 30
0.0
 10
16.51164248589417
 20
-5.718816396203338
 30
0.0
 10
16.55027041260223
 20
-5.702255198608706
 30
0.0
 10
16.69589012218805
 20
-5.639826073146865
 30
0.0
 10
16.86113685806681
 20
-5.495803657795325
 30
0.0
 10
16.88457954928223
 20
-5.285166162558514
 30
0.0
 10
16.91038283600806
 20
-5.315017386704199
 30
0.0
 10
16.9450141608857
 20
-5.337108521260575
 30
0.0
 10
16.98450637693307
 20
-5.346997775439617
 30
0.0
 10
17.00029669912902
 20
-5.350946407948186
 30
0.0
 10
17.01627889860821
 20
-5.352902209728161
 30
0.0
 10
17.03214327870319
 20
-5.352902209728882
 30
0.0
 10
17.06697657966929
 20
-5.352902209730423
 30
0.0
 10
17.10127801027236
 20
-5.34348423309186
 30
0.0
 10
17.13192872309681
 20
-5.325111141679877
 30
0.0
 10
17.17653598355805
 20
-5.298361933612341
 30
0.0
 10
17.2080585598275
 20
-5.255848491925942
 30
0.0
 10
17.22069132252694
 20
-5.205389815902233
 30
0.0
 10
17.22157412634222
 20
-5.201861966909746
 30
0.0
 10
17.22229871555583
 20
-5.198308029339286
 30
0.0
 10
17.22298122641779
 20
-5.194749883933696
 30
0.0
 10
17.24431747534542
 20
-5.211631718569682
 30
0.0
 10
17.26912687140862
 20
-5.22422071978244
 30
0.0
 10
17.29650220534874
 20
-5.231076124815419
 30
0.0
 10
17.31231356672055
 20
-5.235030648293205
 30
0.0
 10
17.32816784801111
 20
-5.236927540381012
 30
0.0
 10
17.34377218389361
 20
-5.23692754038172
 30
0.0
 10
17.43098293371375
 20
-5.236927540385623
 30
0.0
 10
17.51056151213556
 20
-5.177816713722702
 30
0.0
 10
17.53268715094264
 20
-5.089474056247241
 30
0.0
 10
17.5382835716975
 20
-5.067114461809902
 30
0.0
 10
17.53973275012527
 20
-5.044366904971235
 30
0.0
 10
17.53744789563805
 20
-5.022149535361728
 30
0.0
 10
17.53779462125471
 20
-5.022238741466986
 30
0.0
 10
17.53812199082959
 20
-5.022372550624874
 30
0.0
 10
17.53846955801333
 20
-5.022459232029038
 30
0.0
 10
17.55130429679778
 20
-5.025674859653766
 30
0.0
 10
17.56429893331806
 20
-5.027263738208236
 30
0.0
 10
17.57719847276404
 20
-5.027263738208817
 30
0.0
 10
17.60552141118084
 20
-5.027263738210081
 30
0.0
 10
17.63341346727834
 20
-5.01960547823233
 30
0.0
 10
17.65833395019096
 20
-5.004665138738144
 30
0.0
 10
17.69460212294527
 20
-4.982917363533475
 30
0.0
 10
17.72023625470069
 20
-4.948344106781077
 30
0.0
 10
17.73050926344584
 20
-4.90732444657312
 30
0.0
 10
17.74077722278874
 20
-4.866293845993773
 30
0.0
 10
17.73445284655514
 20
-4.82372822714976
 30
0.0
 10
17.71271012075264
 20
-4.787454163426269
 30
0.0
 10
17.70175207644737
 20
-4.769181218489052
 30
0.0
 10
17.68731667717111
 20
-4.753916875686299
 30
0.0
 10
17.67064355116029
 20
-4.741674600090542
 30
0.0
  0
SPLINE
  5
97
330
41
100
AcDbEntity
  8
Layer 2
 62
     7
420
 16777215
370
     9
100
AcDbSpline
210
0.0
220
0.0
230
1.0
 70
    11
 71
     3
 72
    23
 73
    19
 74
     0
 42
0.0000000001
 43
0.0000000001
 12
1.0
 22
0.0
 32
0.0
 13
1.0
 23
0.0
 33
0.0
 40
0.0
 40
0.0
 40
0.0
 40
0.0
 40
1.0
 40
1.0
 40
1.0
 40
2.0
 40
2.0
 40
2.0
 40
3.0
 40
3.0
 40
3.0
 40
4.0
 40
4.0
 40
4.0
 40
5.0
 40
5.0
 40
5.0
 40
6.0
 40
6.0
 40
6.0
 40
6.0
 10
17.53154261978847
 20
-4.923577630627316
 30
0.0
 10
17.56452699798959
 20
-4.889654905189951
 30
0.0
 10
17.59499256606806
 20
-4.853313516106343
 30
0.0
 10
17.62272724913221
 20
-4.814844645569097
 30
0.0
 10
17.62860727797528
 20
-4.819809891050252
 30
0.0
 10
17.63395291175375
 20
-4.825436608217475
 30
0.0
 10
17.63802609618195
 20
-4.832231420423214
 30
0.0
 10
17.64781099604668
 20
-4.84855361298331
 30
0.0
 10
17.65065970044457
 20
-4.867713569570443
 30
0.0
 10
17.64603613117722
 20
-4.886176708655878
 30
0.0
 10
17.64141761131221
 20
-4.904634798339139
 30
0.0
 10
17.62987888575417
 20
-4.920192006467409
 30
0.0
 10
17.61355669319401
 20
-4.929976064765103
 30
0.0
 10
17.59723534220097
 20
-4.939776954403442
 30
0.0
 10
17.57808632598527
 20
-4.942598728656372
 30
0.0
 10
17.55961729593057
 20
-4.93798525819347
 30
0.0
 10
17.54909265864527
 20
-4.935352836521095
 30
0.0
 10
17.53963849462305
 20
-4.930321948811385
 30
0.0
 10
17.53154261978847
 20
-4.923577630627316
 30
0.0
  0
SPLINE
  5
98
330
41
100
AcDbEntity
  8
Layer 2
 62
     7
420
 16777215
370
     9
100
AcDbSpline
210
0.0
220
0.0
230
1.0
 70
    11
 71
     3
 72
    20
 73
    16
 74
     0
 42
0.0000000001
 43
0.0000000001
 12
1.0
 22
0.0
 32
0.0
 13
1.0
 23
0.0
 33
0.0
 40
0.0
 40
0.0
 40
0.0
 40
0.0
 40
1.0
 40
1.0
 40
1.0
 40
2.0
 40
2.0
 40
2.0
 40
3.0
 40
3.0
 40
3.0
 40
4.0
 40
4.0
 40
4.0
 40
5.0
 40
5.0
 40
5.0
 40
5.0
 10
17.2688516789943
 20
-5.119322755678821
 30
0.0
 10
17.30268772302987
 20
-5.101281241677068
 30
0.0
 10
17.33533715755223
 20
-5.081081108241606
 30
0.0
 10
17.36686478322278
 20
-5.059203731714003
 30
0.0
 10
17.39348102370236
 20
-5.041822847830972
 30
0.0
 10
17.41918921335569
 20
-5.023192236907385
 30
0.0
 10
17.44389677980972
 20
-5.003333779686032
 30
0.0
 10
17.45185042981555
 20
-5.02378217539735
 30
0.0
 10
17.4537119760864
 20
-5.046359735695975
 30
0.0
 10
17.44821317710709
 20
-5.068326318329999
 30
0.0
 10
17.4337937676011
 20
-5.125901285164887
 30
0.0
 10
17.37521396972945
 20
-5.161000521309991
 30
0.0
 10
17.31764994326598
 20
-5.146602992546883
 30
0.0
 10
17.29886700870889
 20
-5.14190031597871
 30
0.0
 10
17.28224353515265
 20
-5.132359470551377
 30
0.0
 10
17.2688516789943
 20
-5.119322755678821
 30
0.0
  0
SPLINE
  5
99
330
41
100
AcDbEntity
  8
Layer 2
 62
     7
420
 16777215
370
     9
100
AcDbSpline
210
0.0
220
0.0
230
1.0
 70
    11
 71
     3
 72
    20
 73
    16
 74
     0
 42
0.0000000001
 43
0.0000000001
 12
1.0
 22
0.0
 32
0.0
 13
1.0
 23
0.0
 33
0.0
 40
0.0
 40
0.0
 40
0.0
 40
0.0
 40
1.0
 40
1.0
 40
1.0
 40
2.0
 40
2.0
 40
2.0
 40
3.0
 40
3.0
 40
3.0
 40
4.0
 40
4.0
 40
4.0
 40
5.0
 40
5.0
 40
5.0
 40
5.0
 10
16.94620245353806
 20
-5.222983616232871
 30
0.0
 10
17.01101321370361
 20
-5.214514927206247
 30
0.0
 10
17.07514482927569
 20
-5.199266574180607
 30
0.0
 10
17.13747801610361
 20
-5.177281477074467
 30
0.0
 10
17.13705554945404
 20
-5.179604202079051
 30
0.0
 10
17.13679382210749
 20
-5.181947124692404
 30
0.0
 10
17.13621819025848
 20
-5.184247127387165
 30
0.0
 10
17.12923991643889
 20
-5.212139183484005
 30
0.0
 10
17.1118119048
 20
-5.23564162594846
 30
0.0
 10
17.08715146609986
 20
-5.250427117108996
 30
0.0
 10
17.06248513643055
 20
-5.265218499238775
 30
0.0
 10
17.03355711131846
 20
-5.269502075423538
 30
0.0
 10
17.00565411485028
 20
-5.262523801604061
 30
0.0
 10
16.98155079352541
 20
-5.256490607560168
 30
0.0
 10
16.96079690898291
 20
-5.242171344532557
 30
0.0
 10
16.94620245353806
 20
-5.222983616232871
 30
0.0
  0
SPLINE
  5
9A
330
41
100
AcDbEntity
  8
Layer 2
 62
     7
420
 16777215
370
     9
100
AcDbSpline
210
0.0
220
0.0
230
1.0
 70
    11
 71
     3
 72
    23
 73
    19
 74
     0
 42
0.0000000001
 43
0.0000000001
 12
1.0
 22
0.0
 32
0.0
 13
1.0
 23
0.0
 33
0.0
 40
0.0
 40
0.0
 40
0.0
 40
0.0
 40
1.0
 40
1.0
 40
1.0
 40
2.0
 40
2.0
 40
2.0
 40
3.0
 40
3.0
 40
3.0
 40
4.0
 40
4.0
 40
4.0
 40
5.0
 40
5.0
 40
5.0
 40
6.0
 40
6.0
 40
6.0
 40
6.0
 10
16.38285916635237
 20
-5.139272102100853
 30
0.0
 10
16.38825024475098
 20
-5.134891745706479
 30
0.0
 10
16.39347469287749
 20
-5.130272384275435
 30
0.0
 10
16.39849716491666
 20
-5.125376988858319
 30
0.0
 10
16.46292837834959
 20
-5.159240804607925
 30
0.0
 10
16.53153628895582
 20
-5.185628980424363
 30
0.0
 10
16.60363165333749
 20
-5.203678068534158
 30
0.0
 10
16.66817731988736
 20
-5.219836155525727
 30
0.0
 10
16.73408380032596
 20
-5.228727311207598
 30
0.0
 10
16.8001594357382
 20
-5.230551828533028
 30
0.0
 10
16.80207652542375
 20
-5.460328241182234
 30
0.0
 10
16.59839205698735
 20
-5.590245151531172
 30
0.0
 10
16.50601408559722
 20
-5.626902128248503
 30
0.0
 10
16.49680902541958
 20
-5.544336828437117
 30
0.0
 10
16.44572843136499
 20
-5.4230628114816
 30
0.0
 10
16.38025535795027
 20
-5.343272158167767
 30
0.0
 10
16.328207803375
 20
-5.279844092631619
 30
0.0
 10
16.36357549940986
 20
-5.181574310463108
 30
0.0
 10
16.38285916635237
 20
-5.139272102100853
 30
0.0
  0
SPLINE
  5
9B
330
41
100
AcDbEntity
  8
Layer 2
 62
     7
420
 16777215
370
     9
100
AcDbSpline
210
0.0
220
0.0
230
1.0
 70
    11
 71
     3
 72
    23
 73
    19
 74
     0
 42
0.0000000001
 43
0.0000000001
 12
1.0
 22
0.0
 32
0.0
 13
1.0
 23
0.0
 33
0.0
 40
0.0
 40
0.0
 40
0.0
 40
0.0
 40
1.0
 40
1.0
 40
1.0
 40
2.0
 40
2.0
 40
2.0
 40
3.0
 40
3.0
 40
3.0
 40
4.0
 40
4.0
 40
4.0
 40
5.0
 40
5.0
 40
5.0
 40
6.0
 40
6.0
 40
6.0
 40
6.0
 10
16.09664558550278
 20
-4.923991681541982
 30
0.0
 10
16.09975938351681
 20
-4.911557528664123
 30
0.0
 10
16.10452433604486
 20
-4.899776431802125
 30
0.0
 10
16.11063242955389
 20
-4.888778833845739
 30
0.0
 10
16.17075566135498
 20
-4.962547233487953
 30
0.0
 10
16.23999138096459
 20
-5.025652978852096
 30
0.0
 10
16.31673219535403
 20
-5.076855600134928
 30
0.0
 10
16.31605725859541
 20
-5.078053150019539
 30
0.0
 10
16.31519717708998
 20
-5.079605841191071
 30
0.0
 10
16.3140964074139
 20
-5.081660106312849
 30
0.0
 10
16.28136281618835
 20
-5.102302062439422
 30
0.0
 10
16.24106858675999
 20
-5.10928370252394
 30
0.0
 10
16.20185829566806
 20
-5.099476080346878
 30
0.0
 10
16.16437321698875
 20
-5.090090083252246
 30
0.0
 10
16.13278247379291
 20
-5.06666758965351
 30
0.0
 10
16.11290466053027
 20
-5.033524996851181
 30
0.0
 10
16.09303189666972
 20
-5.000376513079636
 30
0.0
 10
16.08726042997528
 20
-4.961476760221204
 30
0.0
 10
16.09664558550278
 20
-4.923991681541982
 30
0.0
  0
SPLINE
  5
9C
330
41
100
AcDbEntity
  8
Layer 2
 62
     7
420
 16777215
370
     9
100
AcDbSpline
210
0.0
220
0.0
230
1.0
 70
    11
 71
     3
 72
    17
 73
    13
 74
     0
 42
0.0000000001
 43
0.0000000001
 12
1.0
 22
0.0
 32
0.0
 13
1.0
 23
0.0
 33
0.0
 40
0.0
 40
0.0
 40
0.0
 40
0.0
 40
1.0
 40
1.0
 40
1.0
 40
2.0
 40
2.0
 40
2.0
 40
3.0
 40
3.0
 40
3.0
 40
4.0
 40
4.0
 40
4.0
 40
4.0
 10
15.94611954013931
 20
-4.736756482285942
 30
0.0
 10
15.95142814496972
 20
-4.715548993113556
 30
0.0
 10
15.9659754726625
 20
-4.698451717319332
 30
0.0
 10
15.98512617201249
 20
-4.689521849557864
 30
0.0
 10
16.00544496639888
 20
-4.732410630142289
 30
0.0
 10
16.02866211763876
 20
-4.773761867761815
 30
0.0
 10
16.05475911125778
 20
-4.813078196301338
 30
0.0
 10
16.03834855415946
 20
-4.824009310461848
 30
0.0
 10
16.01779748727055
 20
-4.828130464210075
 30
0.0
 10
15.99792977281097
 20
-4.823169426563431
 30
0.0
 10
15.95982193452902
 20
-4.813629422702156
 30
0.0
 10
15.93657953627806
 20
-4.774863479000815
 30
0.0
 10
15.94611954013931
 20
-4.736756482285942
 30
0.0
  0
SPLINE
  5
9D
330
41
100
AcDbEntity
  8
Layer 2
 62
     7
420
 16777215
370
     9
100
AcDbSpline
210
0.0
220
0.0
230
1.0
 70
    11
 71
     3
 72
    17
 73
    13
 74
     0
 42
0.0000000001
 43
0.0000000001
 12
1.0
 22
0.0
 32
0.0
 13
1.0
 23
0.0
 33
0.0
 40
0.0
 40
0.0
 40
0.0
 40
0.0
 40
1.0
 40
1.0
 40
1.0
 40
2.0
 40
2.0
 40
2.0
 40
3.0
 40
3.0
 40
3.0
 40
4.0
 40
4.0
 40
4.0
 40
4.0
 10
15.85793173100597
 20
-4.525837903655908
 30
0.0
 10
15.85793173100736
 20
-4.49526377343203
 30
0.0
 10
15.87738034508708
 20
-4.469309846207352
 30
0.0
 10
15.9044821697429
 20
-4.459221140645026
 30
0.0
 10
15.91465166573931
 20
-4.505846478845127
 30
0.0
 10
15.92820089493085
 20
-4.551202733963123
 30
0.0
 10
15.94488748601278
 20
-4.595047534694218
 30
0.0
 10
15.93975392712569
 20
-4.596239193609398
 30
0.0
 10
15.93453284526749
 20
-4.597088334743098
 30
0.0
 10
15.9291771126843
 20
-4.597088334742858
 30
0.0
 10
15.88988939742499
 20
-4.597088334741088
 30
0.0
 10
15.85793173100418
 20
-4.565124777348185
 30
0.0
 10
15.85793173100597
 20
-4.525837903655908
 30
0.0
  0
SPLINE
  5
9E
330
41
100
AcDbEntity
  8
Layer 2
 62
     7
420
 16777215
370
     9
100
AcDbSpline
210
0.0
220
0.0
230
1.0
 70
    11
 71
     3
 72
    23
 73
    19
 74
     0
 42
0.0000000001
 43
0.0000000001
 12
1.0
 22
0.0
 32
0.0
 13
1.0
 23
0.0
 33
0.0
 40
0.0
 40
0.0
 40
0.0
 40
0.0
 40
1.0
 40
1.0
 40
1.0
 40
2.0
 40
2.0
 40
2.0
 40
3.0
 40
3.0
 40
3.0
 40
4.0
 40
4.0
 40
4.0
 40
5.0
 40
5.0
 40
5.0
 40
6.0
 40
6.0
 40
6.0
 40
6.0
 10
15.80637901785263
 20
-4.286623316755607
 30
0.0
 10
15.80637901785402
 20
-4.253606959008772
 30
0.0
 10
15.83324183747388
 20
-4.226744139391321
 30
0.0
 10
15.8662581952207
 20
-4.226744139392811
 30
0.0
 10
15.87196401968862
 20
-4.226744139393064
 30
0.0
 10
15.87754192596779
 20
-4.227613478135987
 30
0.0
 10
15.88290775735514
 20
-4.229162803039673
 30
0.0
 10
15.88268894992681
 20
-4.237552384768302
 30
0.0
 10
15.88226816641112
 20
-4.24589231404213
 30
0.0
 10
15.88226816641084
 20
-4.25433407292668
 30
0.0
 10
15.88226816640945
 20
-4.284186980205265
 30
0.0
 10
15.88382674854888
 20
-4.313672122691514
 30
0.0
 10
15.8865062979732
 20
-4.342838311273214
 30
0.0
 10
15.88004642944568
 20
-4.345161877844589
 30
0.0
 10
15.87324488470388
 20
-4.3465024941241
 30
0.0
 10
15.86625819521542
 20
-4.346502494123797
 30
0.0
 10
15.8332418374686
 20
-4.346502494122307
 30
0.0
 10
15.80637901785111
 20
-4.319639674502456
 30
0.0
 10
15.80637901785263
 20
-4.286623316755607
 30
0.0
  0
SPLINE
  5
9F
330
41
100
AcDbEntity
  8
Layer 2
 62
     7
420
 16777215
370
     9
100
AcDbSpline
210
0.0
220
0.0
230
1.0
 70
    11
 71
     3
 72
    17
 73
    13
 74
     0
 42
0.0000000001
 43
0.0000000001
 12
1.0
 22
0.0
 32
0.0
 13
1.0
 23
0.0
 33
0.0
 40
0.0
 40
0.0
 40
0.0
 40
0.0
 40
1.0
 40
1.0
 40
1.0
 40
2.0
 40
2.0
 40
2.0
 40
3.0
 40
3.0
 40
3.0
 40
4.0
 40
4.0
 40
4.0
 40
4.0
 10
15.82931003631307
 20
-4.084142289179933
 30
0.0
 10
15.82931003631458
 20
-4.051125931433098
 30
0.0
 10
15.85617285593445
 20
-4.024263111815647
 30
0.0
 10
15.88918921368125
 20
-4.024263111817137
 30
0.0
 10
15.89619105137639
 20
-4.024263111817453
 30
0.0
 10
15.90299764552027
 20
-4.025602044963547
 30
0.0
 10
15.90946088031556
 20
-4.027928136236571
 30
0.0
 10
15.90027433460722
 20
-4.065796969481779
 30
0.0
 10
15.89333645600472
 20
-4.104517468562108
 30
0.0
 10
15.88880040970763
 20
-4.143975180361419
 30
0.0
 10
15.85596751357361
 20
-4.1437597392001
 30
0.0
 10
15.82931003631153
 20
-4.117025679335926
 30
0.0
 10
15.82931003631307
 20
-4.084142289179933
 30
0.0
  0
SPLINE
  5
A0
330
41
100
AcDbEntity
  8
Layer 2
 62
     7
420
 16777215
370
     9
100
AcDbSpline
210
0.0
220
0.0
230
1.0
 70
    11
 71
     3
 72
    17
 73
    13
 74
     0
 42
0.0000000001
 43
0.0000000001
 12
1.0
 22
0.0
 32
0.0
 13
1.0
 23
0.0
 33
0.0
 40
0.0
 40
0.0
 40
0.0
 40
0.0
 40
1.0
 40
1.0
 40
1.0
 40
2.0
 40
2.0
 40
2.0
 40
3.0
 40
3.0
 40
3.0
 40
4.0
 40
4.0
 40
4.0
 40
4.0
 10
15.96056756296278
 20
-3.821782084243637
 30
0.0
 10
15.96841770022471
 20
-3.82178208424399
 30
0.0
 10
15.97606249513112
 20
-3.823445020696921
 30
0.0
 10
15.98320234981917
 20
-3.826366941427674
 30
0.0
 10
15.96548063128598
 20
-3.861826368263741
 30
0.0
 10
15.94989985927876
 20
-3.898507750428394
 30
0.0
 10
15.93660646646069
 20
-3.93628232816598
 30
0.0
 10
15.91541917489722
 20
-3.926906429876453
 30
0.0
 10
15.90068838559346
 20
-3.905731761817365
 30
0.0
 10
15.90068838559457
 20
-3.881654529070197
 30
0.0
 10
15.90068838559611
 20
-3.848638171323362
 30
0.0
 10
15.92755120521598
 20
-3.821782084242159
 30
0.0
 10
15.96056756296278
 20
-3.821782084243637
 30
0.0
  0
SPLINE
  5
A1
330
41
100
AcDbEntity
  8
Layer 2
 62
     7
420
 16777215
370
     9
100
AcDbSpline
210
0.0
220
0.0
230
1.0
 70
    11
 71
     3
 72
    17
 73
    13
 74
     0
 42
0.0000000001
 43
0.0000000001
 12
1.0
 22
0.0
 32
0.0
 13
1.0
 23
0.0
 33
0.0
 40
0.0
 40
0.0
 40
0.0
 40
0.0
 40
1.0
 40
1.0
 40
1.0
 40
2.0
 40
2.0
 40
2.0
 40
3.0
 40
3.0
 40
3.0
 40
4.0
 40
4.0
 40
4.0
 40
4.0
 10
16.069203767825
 20
-3.633984718222766
 30
0.0
 10
16.08092006402583
 20
-3.633984718223271
 30
0.0
 10
16.09215835015306
 20
-3.637568110640334
 30
0.0
 10
16.10173538296168
 20
-3.643781400028122
 30
0.0
 10
16.07642946234846
 20
-3.674455676727512
 30
0.0
 10
16.05319884603265
 20
-3.706871155613423
 30
0.0
 10
16.03179274703931
 20
-3.740552351313504
 30
0.0
 10
16.01782105119666
 20
-3.729364559207296
 30
0.0
 10
16.00932459045596
 20
-3.712362380486499
 30
0.0
 10
16.0093245904568
 20
-3.693857163049339
 30
0.0
 10
16.00932459045834
 20
-3.660840805302491
 30
0.0
 10
16.0361874100782
 20
-3.633984718221275
 30
0.0
 10
16.069203767825
 20
-3.633984718222766
 30
0.0
  0
SPLINE
  5
A2
330
41
100
AcDbEntity
  8
Layer 2
 62
     7
420
 16777215
370
     9
100
AcDbSpline
210
0.0
220
0.0
230
1.0
 70
    11
 71
     3
 72
    17
 73
    13
 74
     0
 42
0.0000000001
 43
0.0000000001
 12
1.0
 22
0.0
 32
0.0
 13
1.0
 23
0.0
 33
0.0
 40
0.0
 40
0.0
 40
0.0
 40
0.0
 40
1.0
 40
1.0
 40
1.0
 40
2.0
 40
2.0
 40
2.0
 40
3.0
 40
3.0
 40
3.0
 40
4.0
 40
4.0
 40
4.0
 40
4.0
 10
16.22747896242041
 20
-3.517342686213421
 30
0.0
 10
16.2085235066211
 20
-3.533202016905344
 30
0.0
 10
16.19024635384848
 20
-3.549828856729265
 30
0.0
 10
16.17257176306985
 20
-3.567078456155893
 30
0.0
 10
16.16889411514611
 20
-3.561206001415788
 30
0.0
 10
16.16682554338513
 20
-3.554338814445524
 30
0.0
 10
16.16682554338541
 20
-3.547087872909363
 30
0.0
 10
16.16682554338639
 20
-3.52631799859268
 30
0.0
 10
16.18372420936278
 20
-3.509419332617792
 30
0.0
 10
16.20448735114319
 20
-3.509419332618715
 30
0.0
 10
16.21302757337028
 20
-3.509419332619106
 30
0.0
 10
16.22101741075916
 20
-3.512355559989436
 30
0.0
 10
16.22747896242041
 20
-3.517342686213421
 30
0.0
  0
SPLINE
  5
A3
330
41
100
AcDbEntity
  8
Layer 2
 62
     7
420
 16777215
370
     9
100
AcDbSpline
210
0.0
220
0.0
230
1.0
 70
    11
 71
     3
 72
    53
 73
    49
 74
     0
 42
0.0000000001
 43
0.0000000001
 12
1.0
 22
0.0
 32
0.0
 13
1.0
 23
0.0
 33
0.0
 40
0.0
 40
0.0
 40
0.0
 40
0.0
 40
1.0
 40
1.0
 40
1.0
 40
2.0
 40
2.0
 40
2.0
 40
3.0
 40
3.0
 40
3.0
 40
4.0
 40
4.0
 40
4.0
 40
5.0
 40
5.0
 40
5.0
 40
6.0
 40
6.0
 40
6.0
 40
7.0
 40
7.0
 40
7.0
 40
8.0
 40
8.0
 40
8.0
 40
9.0
 40
9.0
 40
9.0
 40
10.0
 40
10.0
 40
10.0
 40
11.0
 40
11.0
 40
11.0
 40
12.0
 40
12.0
 40
12.0
 40
13.0
 40
13.0
 40
13.0
 40
14.0
 40
14.0
 40
14.0
 40
15.0
 40
15.0
 40
15.0
 40
16.0
 40
16.0
 40
16.0
 40
16.0
 10
17.72116618630071
 20
-4.254334073009241
 30
0.0
 10
17.721166186295
 20
-4.382065433788688
 30
0.0
 10
17.6935249171675
 20
-4.503390786329519
 30
0.0
 10
17.64427052355917
 20
-4.612983011327931
 30
0.0
 10
17.63480373603112
 20
-4.61686600160696
 30
0.0
 10
17.62659172494568
 20
-4.623923382725707
 30
0.0
 10
17.62170474519821
 20
-4.633824418841199
 30
0.0
 10
17.53241364166999
 20
-4.814668758055644
 30
0.0
 10
17.38654398667207
 20
-4.962670102329008
 30
0.0
 10
17.21052855907167
 20
-5.05153873919173
 30
0.0
 10
17.09865652898265
 20
-5.103311101345867
 30
0.0
 10
16.97423673446749
 20
-5.132418380229688
 30
0.0
 10
16.84308187900736
 20
-5.132418380223814
 30
0.0
 10
16.52096957332126
 20
-5.132418380209338
 30
0.0
 10
16.23898823306707
 20
-4.957963217875013
 30
0.0
 10
16.08618659045583
 20
-4.698686514526293
 30
0.0
 10
16.07230410071932
 20
-4.673209755806511
 30
0.0
 10
16.0594146600789
 20
-4.647057218761145
 30
0.0
 10
16.04794241831819
 20
-4.620070688788473
 30
0.0
 10
16.05046880254473
 20
-4.607188822250274
 30
0.0
 10
16.04732807438695
 20
-4.593340836760641
 30
0.0
 10
16.03793786945931
 20
-4.5827699132881
 30
0.0
 10
16.03568583608542
 20
-4.580235113391646
 30
0.0
 10
16.03316113499348
 20
-4.578111839773176
 30
0.0
 10
16.03050851571291
 20
-4.576230095892495
 30
0.0
 10
16.01355430631543
 20
-4.52981178318166
 30
0.0
 10
16.00026259663526
 20
-4.481473856074027
 30
0.0
 10
15.99075120605693
 20
-4.431652246291517
 30
0.0
 10
15.99222899776305
 20
-4.4284988946277
 30
0.0
 10
15.99346778443237
 20
-4.425196585599464
 30
0.0
 10
15.99417133447014
 20
-4.421624975121365
 30
0.0
 10
15.99701414790027
 20
-4.407181160174294
 30
0.0
 10
15.99230473879735
 20
-4.393045358760093
 30
0.0
 10
15.98285225790945
 20
-4.383151896747222
 30
0.0
 10
15.97872353005833
 20
-4.353182011651193
 30
0.0
 10
15.97580665873152
 20
-4.322787135204736
 30
0.0
 10
15.97450054670124
 20
-4.291922664355221
 30
0.0
 10
15.9741033270632
 20
-4.282546766066629
 30
0.0
 10
15.97068656491916
 20
-4.274062928830391
 30
0.0
 10
15.9653240998
 20
-4.267186484622635
 30
0.0
 10
15.96526014070582
 20
-4.262891126498149
 30
0.0
 10
15.96499757179249
 20
-4.258643737694393
 30
0.0
 10
15.96499757179279
 20
-4.254334072930381
 30
0.0
 10
15.96499757181444
 20
-3.77015026377881
 30
0.0
 10
16.35890480247084
 20
-3.376243033157821
 30
0.0
 10
16.84308187908626
 20
-3.376243033179573
 30
0.0
 10
17.32725895570153
 20
-3.3762430332013
 30
0.0
 10
17.72116618632251
 20
-3.770150263857659
 30
0.0
 10
17.72116618630071
 20
-4.254334073009241
 30
0.0
  0
SPLINE
  5
A4
330
41
100
AcDbEntity
  8
Layer 2
 62
     7
420
 16777215
370
     9
100
AcDbSpline
210
0.0
220
0.0
230
1.0
 70
    11
 71
     3
 72
    17
 73
    13
 74
     0
 42
0.0000000001
 43
0.0000000001
 12
1.0
 22
0.0
 32
0.0
 13
1.0
 23
0.0
 33
0.0
 40
0.0
 40
0.0
 40
0.0
 40
0.0
 40
1.0
 40
1.0
 40
1.0
 40
2.0
 40
2.0
 40
2.0
 40
3.0
 40
3.0
 40
3.0
 40
4.0
 40
4.0
 40
4.0
 40
4.0
 10
17.64298797542056
 20
-4.254334073005717
 30
0.0
 10
17.64298797544042
 20
-3.813265425968893
 30
0.0
 10
17.28415725865569
 20
-3.454427976615774
 30
0.0
 10
16.84308187908265
 20
-3.45442797659598
 30
0.0
 10
16.40200649950958
 20
-3.45442797657616
 30
0.0
 10
16.04317578269264
 20
-3.813265425897068
 30
0.0
 10
16.04317578267291
 20
-4.254334072933893
 30
0.0
 10
16.04317578265305
 20
-4.695402719970742
 30
0.0
 10
16.40200649943777
 20
-5.054233436787613
 30
0.0
 10
16.84308187901082
 20
-5.054233436807408
 30
0.0
 10
17.2841572585839
 20
-5.054233436827214
 30
0.0
 10
17.6429879754007
 20
-4.695402720042542
 30
0.0
 10
17.64298797542056
 20
-4.254334073005717
 30
0.0
  0
SPLINE
  5
A5
330
41
100
AcDbEntity
  8
Layer 2
 62
     7
420
 16777215
370
     9
100
AcDbSpline
210
0.0
220
0.0
230
1.0
 70
    11
 71
     3
 72
    17
 73
    13
 74
     0
 42
0.0000000001
 43
0.0000000001
 12
1.0
 22
0.0
 32
0.0
 13
1.0
 23
0.0
 33
0.0
 40
0.0
 40
0.0
 40
0.0
 40
0.0
 40
1.0
 40
1.0
 40
1.0
 40
2.0
 40
2.0
 40
2.0
 40
3.0
 40
3.0
 40
3.0
 40
4.0
 40
4.0
 40
4.0
 40
4.0
 10
17.56025857003861
 20
-4.254334073002004
 30
0.0
 10
17.56025857002083
 20
-4.649783054440832
 30
0.0
 10
17.23853759298959
 20
-4.971504031443197
 30
0.0
 10
16.84308187901459
 20
-4.971504031425448
 30
0.0
 10
16.44762616503943
 20
-4.971504031407688
 30
0.0
 10
16.12590518803709
 20
-4.649783054376434
 30
0.0
 10
16.12590518805485
 20
-4.254334072937606
 30
0.0
 10
16.12590518807264
 20
-3.858878358962531
 30
0.0
 10
16.44762616510388
 20
-3.537157381960178
 30
0.0
 10
16.84308187907888
 20
-3.537157381977939
 30
0.0
 10
17.23853759305403
 20
-3.537157381995687
 30
0.0
 10
17.5602585700564
 20
-3.858878359026928
 30
0.0
 10
17.56025857003861
 20
-4.254334073002004
 30
0.0
  0
ENDBLK
  5
44
330
41
100
AcDbEntity
  8
0
100
AcDbBlockEnd
  0
ENDSEC
  0
SECTION
  2
ENTITIES
  0
INSERT
  5
42
330
1F
100
AcDbEntity
  8
Layer 2
100
AcDbBlockReference
  2
block 2
 10
0.0
 20
0.0
 30
0.0
  0
ENDSEC
  0
SECTION
  2
OBJECTS
  0
DICTIONARY
  5
C
330
0
100
AcDbDictionary
281
     1
  3
ACAD_GROUP
350
D
  3
ACAD_LAYOUT
350
1A
  3
ACAD_MATERIAL
350
3B
  3
ACAD_MLEADERSTYLE
350
A7
  3
ACAD_MLINESTYLE
350
17
  3
ACAD_PLOTSETTINGS
350
19
  3
ACAD_PLOTSTYLENAME
350
E
  3
ACAD_TABLESTYLE
350
A6
  3
ACAD_VISUALSTYLE
350
2A
  0
SUN
  5
3F
330
29
100
AcDbSun
 90
        1
290
     0
 63
     7
421
 16777215
 40
1.0
291
     1
 91
  2455826
 92
 54000000
292
     0
 70
     2
 71
   256
280
     1
  0
DICTIONARY
  5
D
102
{ACAD_REACTORS
330
C
102
}
330
C
100
AcDbDictionary
281
     1
  0
DICTIONARY
  5
1A
102
{ACAD_REACTORS
330
C
102
}
330
C
100
AcDbDictionary
281
     1
  3
Layout1
350
1E
  3
Layout2
350
26
  3
Model
350
22
  0
DICTIONARY
  5
3B
102
{ACAD_REACTORS
330
C
102
}
330
C
100
AcDbDictionary
281
     1
  3
ByBlock
350
3D
  3
ByLayer
350
3C
  3
Global
350
3E
  0
DICTIONARY
  5
A7
102
{ACAD_REACTORS
330
C
102
}
330
C
100
AcDbDictionary
281
     1
  0
DICTIONARY
  5
17
102
{ACAD_REACTORS
330
C
102
}
330
C
100
AcDbDictionary
281
     1
  3
Standard
350
18
  0
DICTIONARY
  5
19
102
{ACAD_REACTORS
330
C
102
}
330
C
100
AcDbDictionary
281
     1
  0
ACDBDICTIONARYWDFLT
  5
E
102
{ACAD_REACTORS
330
C
102
}
330
C
100
AcDbDictionary
281
     1
  3
Normal
350
F
100
AcDbDictionaryWithDefault
340
F
  0
DICTIONARY
  5
A6
102
{ACAD_REACTORS
330
C
102
}
330
C
100
AcDbDictionary
281
     1
  0
DICTIONARY
  5
2A
102
{ACAD_REACTORS
330
C
102
}
330
C
100
AcDbDictionary
281
     1
  3
2dWireframe
350
2F
  3
3D Hidden
350
31
  3
3dWireframe
350
30
  3
Basic
350
32
  3
Brighten
350
36
  3
ColorChange
350
3A
  3
Conceptual
350
34
  3
Dim
350
35
  3
Facepattern
350
39
  3
Flat
350
2B
  3
FlatWithEdges
350
2C
  3
Gouraud
350
2D
  3
GouraudWithEdges
350
2E
  3
Linepattern
350
38
  3
Realistic
350
33
  3
Thicken
350
37
  0
LAYOUT
  5
1E
102
{ACAD_REACTORS
330
1A
102
}
330
1A
100
AcDbPlotSettings
  1

  2
none_device
  4

  6

 40
0.0
 41
0.0
 42
0.0
 43
0.0
 44
0.0
 45
0.0
 46
0.0
 47
0.0
 48
0.0
 49
0.0
140
0.0
141
0.0
142
1.0
143
1.0
 70
   688
 72
     0
 73
     0
 74
     5
  7

 75
    16
 76
     0
 77
     2
 78
   300
147
1.0
148
0.0
149
0.0
100
AcDbLayout
  1
Layout1
 70
     1
 71
     1
 10
0.0
 20
0.0
 11
12.0
 21
9.0
 12
0.0
 22
0.0
 32
0.0
 14
1.000000000000000E+20
 24
1.000000000000000E+20
 34
1.000000000000000E+20
 15
-1.000000000000000E+20
 25
-1.000000000000000E+20
 35
-1.000000000000000E+20
146
0.0
 13
0.0
 23
0.0
 33
0.0
 16
1.0
 26
0.0
 36
0.0
 17
0.0
 27
1.0
 37
0.0
 76
     0
330
1B
  0
LAYOUT
  5
26
102
{ACAD_REACTORS
330
1A
102
}
330
1A
100
AcDbPlotSettings
  1

  2
none_device
  4

  6

 40
0.0
 41
0.0
 42
0.0
 43
0.0
 44
0.0
 45
0.0
 46
0.0
 47
0.0
 48
0.0
 49
0.0
140
0.0
141
0.0
142
1.0
143
1.0
 70
   688
 72
     0
 73
     0
 74
     5
  7

 75
    16
 76
     0
 77
     2
 78
   300
147
1.0
148
0.0
149
0.0
100
AcDbLayout
  1
Layout2
 70
     1
 71
     2
 10
0.0
 20
0.0
 11
0.0
 21
0.0
 12
0.0
 22
0.0
 32
0.0
 14
0.0
 24
0.0
 34
0.0
 15
0.0
 25
0.0
 35
0.0
146
0.0
 13
0.0
 23
0.0
 33
0.0
 16
1.0
 26
0.0
 36
0.0
 17
0.0
 27
1.0
 37
0.0
 76
     0
330
23
  0
LAYOUT
  5
22
102
{ACAD_REACTORS
330
1A
102
}
330
1A
100
AcDbPlotSettings
  1

  2
none_device
  4

  6

 40
0.0
 41
0.0
 42
0.0
 43
0.0
 44
0.0
 45
0.0
 46
0.0
 47
0.0
 48
0.0
 49
0.0
140
0.0
141
0.0
142
1.0
143
1.0
 70
  1712
 72
     0
 73
     0
 74
     0
  7

 75
     0
 76
     0
 77
     2
 78
   300
147
1.0
148
0.0
149
0.0
100
AcDbLayout
  1
Model
 70
     1
 71
     0
 10
0.0
 20
0.0
 11
12.0
 21
9.0
 12
0.0
 22
0.0
 32
0.0
 14
1.000000000000000E+20
 24
1.000000000000000E+20
 34
1.000000000000000E+20
 15
-1.000000000000000E+20
 25
-1.000000000000000E+20
 35
-1.000000000000000E+20
146
0.0
 13
0.0
 23
0.0
 33
0.0
 16
1.0
 26
0.0
 36
0.0
 17
0.0
 27
1.0
 37
0.0
 76
     0
330
1F
331
29
  0
MATERIAL
  5
3D
102
{ACAD_REACTORS
330
3B
102
}
330
3B
100
AcDbMaterial
  1
ByBlock
 72
     1
 94
      127
  0
MATERIAL
  5
3C
102
{ACAD_REACTORS
330
3B
102
}
330
3B
100
AcDbMaterial
  1
ByLayer
 72
     1
 94
      127
  0
MATERIAL
  5
3E
102
{ACAD_REACTORS
330
3B
102
}
330
3B
100
AcDbMaterial
  1
Global
 72
     1
 94
      127
  0
MLINESTYLE
  5
18
102
{ACAD_REACTORS
330
17
102
}
330
17
100
AcDbMlineStyle
  2
Standard
 70
     0
  3

 62
   256
 51
90.0
 52
90.0
 71
     2
 49
0.5
 62
   256
  6
BYLAYER
 49
-0.5
 62
   256
  6
BYLAYER
  0
ACDBPLACEHOLDER
  5
F
102
{ACAD_REACTORS
330
E
102
}
330
E
  0
VISUALSTYLE
  5
2F
102
{ACAD_REACTORS
330
2A
102
}
330
2A
100
AcDbVisualStyle
  2
2dWireframe
 70
     4
177
     2
291
     0
 71
     0
176
     1
 72
     2
176
     1
 73
     0
176
     1
 90
        0
176
     1
 40
-0.6
176
     1
 41
-30.0
176
     1
 62
     5
 63
     7
421
 16777215
176
     1
 74
     1
176
     1
 91
        4
176
     1
 64
     7
176
     1
 65
   257
176
     1
 75
     1
176
     1
175
     1
176
     1
 42
1.0
176
     1
 92
        0
176
     1
 66
   257
176
     1
 43
1.0
176
     1
 76
     1
176
     1
 77
     6
176
     1
 78
     2
176
     1
 67
     7
176
     1
 79
     5
176
     1
170
     0
176
     1
171
     0
176
     1
290
     0
176
     1
 93
        1
176
     1
 44
0.0
176
     1
173
     0
176
     1
  0
VISUALSTYLE
  5
31
102
{ACAD_REACTORS
330
2A
102
}
330
2A
100
AcDbVisualStyle
  2
3D Hidden
 70
     6
177
     2
291
     0
 71
     1
176
     1
 72
     2
176
     1
 73
     2
176
     1
 90
        0
176
     1
 40
-0.6
176
     1
 41
-30.0
176
     1
 62
     5
 63
     7
421
 16777215
176
     1
 74
     2
176
     1
 91
        2
176
     1
 64
     7
176
     1
 65
   257
176
     1
 75
     2
176
     1
175
     1
176
     1
 42
40.0
176
     1
 92
        0
176
     1
 66
   257
176
     1
 43
1.0
176
     1
 76
     1
176
     1
 77
     6
176
     1
 78
     2
176
     1
 67
     7
176
     1
 79
     3
176
     1
170
     0
176
     1
171
     0
176
     1
290
     0
176
     1
 93
        1
176
     1
 44
0.0
176
     1
173
     0
176
     1
  0
VISUALSTYLE
  5
30
102
{ACAD_REACTORS
330
2A
102
}
330
2A
100
AcDbVisualStyle
  2
3dWireframe
 70
     5
177
     2
291
     0
 71
     0
176
     1
 72
     2
176
     1
 73
     0
176
     1
 90
        0
176
     1
 40
-0.6
176
     1
 41
-30.0
176
     1
 62
     5
 63
     7
421
 16777215
176
     1
 74
     1
176
     1
 91
        4
176
     1
 64
     7
176
     1
 65
   257
176
     1
 75
     1
176
     1
175
     1
176
     1
 42
1.0
176
     1
 92
        0
176
     1
 66
   257
176
     1
 43
1.0
176
     1
 76
     1
176
     1
 77
     6
176
     1
 78
     2
176
     1
 67
     7
176
     1
 79
     5
176
     1
170
     0
176
     1
171
     0
176
     1
290
     0
176
     1
 93
        1
176
     1
 44
0.0
176
     1
173
     0
176
     1
  0
VISUALSTYLE
  5
32
102
{ACAD_REACTORS
330
2A
102
}
330
2A
100
AcDbVisualStyle
  2
Basic
 70
     7
177
     2
291
     1
 71
     1
176
     1
 72
     0
176
     1
 73
     1
176
     1
 90
        0
176
     1
 40
-0.6
176
     1
 41
-30.0
176
     1
 62
     5
 63
     7
421
 16777215
176
     1
 74
     0
176
     1
 91
        4
176
     1
 64
     7
176
     1
 65
   257
176
     1
 75
     1
176
     1
175
     1
176
     1
 42
1.0
176
     1
 92
        8
176
     1
 66
     7
176
     1
 43
1.0
176
     1
 76
     1
176
     1
 77
     6
176
     1
 78
     2
176
     1
 67
     7
176
     1
 79
     5
176
     1
170
     0
176
     1
171
     0
176
     1
290
     0
176
     1
 93
        1
176
     1
 44
0.0
176
     1
173
     0
176
     1
  0
VISUALSTYLE
  5
36
102
{ACAD_REACTORS
330
2A
102
}
330
2A
100
AcDbVisualStyle
  2
Brighten
 70
    12
177
     2
291
     1
 71
     2
176
     1
 72
     2
176
     1
 73
     0
176
     1
 90
        0
176
     1
 40
-0.6
176
     1
 41
-30.0
176
     1
 62
     5
 63
     7
421
 16777215
176
     1
 74
     1
176
     1
 91
        4
176
     1
 64
     7
176
     1
 65
   257
176
     1
 75
     1
176
     1
175
     1
176
     1
 42
1.0
176
     1
 92
        8
176
     1
 66
     7
176
     1
 43
1.0
176
     1
 76
     1
176
     1
 77
     6
176
     1
 78
     2
176
     1
 67
     7
176
     1
 79
     5
176
     1
170
     0
176
     1
171
     0
176
     1
290
     0
176
     1
 93
        1
176
     1
 44
50.0
176
     1
173
     0
176
     1
  0
VISUALSTYLE
  5
3A
102
{ACAD_REACTORS
330
2A
102
}
330
2A
100
AcDbVisualStyle
  2
ColorChange
 70
    16
177
     2
291
     1
 71
     2
176
     1
 72
     2
176
     1
 73
     3
176
     1
 90
        0
176
     1
 40
-0.6
176
     1
 41
-30.0
176
     1
 62
     5
 63
     8
421
  8421504
176
     1
 74
     1
176
     1
 91
        4
176
     1
 64
     7
176
     1
 65
   257
176
     1
 75
     1
176
     1
175
     1
176
     1
 42
1.0
176
     1
 92
        8
176
     1
 66
     8
424
  8421504
176
     1
 43
1.0
176
     1
 76
     1
176
     1
 77
     6
176
     1
 78
     2
176
     1
 67
     7
176
     1
 79
     5
176
     1
170
     0
176
     1
171
     0
176
     1
290
     0
176
     1
 93
        1
176
     1
 44
0.0
176
     1
173
     0
176
     1
  0
VISUALSTYLE
  5
34
102
{ACAD_REACTORS
330
2A
102
}
330
2A
100
AcDbVisualStyle
  2
Conceptual
 70
     9
177
     2
291
     0
 71
     3
176
     1
 72
     2
176
     1
 73
     0
176
     1
 90
        0
176
     1
 40
-0.6
176
     1
 41
-30.0
176
     1
 62
     5
 63
     7
421
 16777215
176
     1
 74
     2
176
     1
 91
        2
176
     1
 64
     7
176
     1
 65
   257
176
     1
 75
     1
176
     1
175
     1
176
     1
 42
40.0
176
     1
 92
        8
176
     1
 66
     7
176
     1
 43
1.0
176
     1
 76
     1
176
     1
 77
     6
176
     1
 78
     2
176
     1
 67
     7
176
     1
 79
     3
176
     1
170
     0
176
     1
171
     0
176
     1
290
     0
176
     1
 93
        1
176
     1
 44
0.0
176
     1
173
     0
176
     1
  0
VISUALSTYLE
  5
35
102
{ACAD_REACTORS
330
2A
102
}
330
2A
100
AcDbVisualStyle
  2
Dim
 70
    11
177
     2
291
     1
 71
     2
176
     1
 72
     2
176
     1
 73
     0
176
     1
 90
        0
176
     1
 40
-0.6
176
     1
 41
-30.0
176
     1
 62
     5
 63
     7
421
 16777215
176
     1
 74
     1
176
     1
 91
        4
176
     1
 64
     7
176
     1
 65
   257
176
     1
 75
     1
176
     1
175
     1
176
     1
 42
1.0
176
     1
 92
        8
176
     1
 66
     7
176
     1
 43
1.0
176
     1
 76
     1
176
     1
 77
     6
176
     1
 78
     2
176
     1
 67
     7
176
     1
 79
     5
176
     1
170
     0
176
     1
171
     0
176
     1
290
     0
176
     1
 93
        1
176
     1
 44
-50.0
176
     1
173
     0
176
     1
  0
VISUALSTYLE
  5
39
102
{ACAD_REACTORS
330
2A
102
}
330
2A
100
AcDbVisualStyle
  2
Facepattern
 70
    15
177
     2
291
     1
 71
     2
176
     1
 72
     2
176
     1
 73
     0
176
     1
 90
        0
176
     1
 40
-0.6
176
     1
 41
-30.0
176
     1
 62
     5
 63
     7
421
 16777215
176
     1
 74
     1
176
     1
 91
        4
176
     1
 64
     7
176
     1
 65
   257
176
     1
 75
     1
176
     1
175
     1
176
     1
 42
1.0
176
     1
 92
        8
176
     1
 66
     7
176
     1
 43
1.0
176
     1
 76
     1
176
     1
 77
     6
176
     1
 78
     2
176
     1
 67
     7
176
     1
 79
     5
176
     1
170
     0
176
     1
171
     0
176
     1
290
     0
176
     1
 93
        1
176
     1
 44
0.0
176
     1
173
     0
176
     1
  0
VISUALSTYLE
  5
2B
102
{ACAD_REACTORS
330
2A
102
}
330
2A
100
AcDbVisualStyle
  2
Flat
 70
     0
177
     2
291
     1
 71
     2
176
     1
 72
     1
176
     1
 73
     1
176
     1
 90
        2
176
     1
 40
-0.6
176
     1
 41
30.0
176
     1
 62
     5
 63
     7
421
 16777215
176
     1
 74
     0
176
     1
 91
        4
176
     1
 64
     7
176
     1
 65
   257
176
     1
 75
     1
176
     1
175
     1
176
     1
 42
1.0
176
     1
 92
        8
176
     1
 66
     7
176
     1
 43
1.0
176
     1
 76
     1
176
     1
 77
     6
176
     1
 78
     2
176
     1
 67
     7
176
     1
 79
     5
176
     1
170
     0
176
     1
171
     0
176
     1
290
     0
176
     1
 93
       13
176
     1
 44
0.0
176
     1
173
     0
176
     1
  0
VISUALSTYLE
  5
2C
102
{ACAD_REACTORS
330
2A
102
}
330
2A
100
AcDbVisualStyle
  2
FlatWithEdges
 70
     1
177
     2
291
     1
 71
     2
176
     1
 72
     1
176
     1
 73
     1
176
     1
 90
        2
176
     1
 40
-0.6
176
     1
 41
30.0
176
     1
 62
     5
 63
     7
421
 16777215
176
     1
 74
     1
176
     1
 91
        4
176
     1
 64
     7
176
     1
 65
   257
176
     1
 75
     1
176
     1
175
     1
176
     1
 42
1.0
176
     1
 92
        0
176
     1
 66
   257
176
     1
 43
1.0
176
     1
 76
     1
176
     1
 77
     6
176
     1
 78
     2
176
     1
 67
     7
176
     1
 79
     5
176
     1
170
     0
176
     1
171
     0
176
     1
290
     0
176
     1
 93
       13
176
     1
 44
0.0
176
     1
173
     0
176
     1
  0
VISUALSTYLE
  5
2D
102
{ACAD_REACTORS
330
2A
102
}
330
2A
100
AcDbVisualStyle
  2
Gouraud
 70
     2
177
     2
291
     1
 71
     2
176
     1
 72
     2
176
     1
 73
     1
176
     1
 90
        2
176
     1
 40
-0.6
176
     1
 41
30.0
176
     1
 62
     5
 63
     7
421
 16777215
176
     1
 74
     0
176
     1
 91
        4
176
     1
 64
     7
176
     1
 65
   257
176
     1
 75
     1
176
     1
175
     1
176
     1
 42
1.0
176
     1
 92
        0
176
     1
 66
     7
176
     1
 43
1.0
176
     1
 76
     1
176
     1
 77
     6
176
     1
 78
     2
176
     1
 67
     7
176
     1
 79
     5
176
     1
170
     0
176
     1
171
     0
176
     1
290
     0
176
     1
 93
       13
176
     1
 44
0.0
176
     1
173
     0
176
     1
  0
VISUALSTYLE
  5
2E
102
{ACAD_REACTORS
330
2A
102
}
330
2A
100
AcDbVisualStyle
  2
GouraudWithEdges
 70
     3
177
     2
291
     1
 71
     2
176
     1
 72
     2
176
     1
 73
     1
176
     1
 90
        2
176
     1
 40
-0.6
176
     1
 41
30.0
176
     1
 62
     5
 63
     7
421
 16777215
176
     1
 74
     1
176
     1
 91
        4
176
     1
 64
     7
176
     1
 65
   257
176
     1
 75
     1
176
     1
175
     1
176
     1
 42
1.0
176
     1
 92
        0
176
     1
 66
   257
176
     1
 43
1.0
176
     1
 76
     1
176
     1
 77
     6
176
     1
 78
     2
176
     1
 67
     7
176
     1
 79
     5
176
     1
170
     0
176
     1
171
     0
176
     1
290
     0
176
     1
 93
       13
176
     1
 44
0.0
176
     1
173
     0
176
     1
  0
VISUALSTYLE
  5
38
102
{ACAD_REACTORS
330
2A
102
}
330
2A
100
AcDbVisualStyle
  2
Linepattern
 70
    14
177
     2
291
     1
 71
     2
176
     1
 72
     2
176
     1
 73
     0
176
     1
 90
        0
176
     1
 40
-0.6
176
     1
 41
-30.0
176
     1
 62
     5
 63
     7
421
 16777215
176
     1
 74
     1
176
     1
 91
        4
176
     1
 64
     7
176
     1
 65
   257
176
     1
 75
     7
176
     1
175
     7
176
     1
 42
1.0
176
     1
 92
        8
176
     1
 66
     7
176
     1
 43
1.0
176
     1
 76
     1
176
     1
 77
     6
176
     1
 78
     2
176
     1
 67
     7
176
     1
 79
     5
176
     1
170
     0
176
     1
171
     0
176
     1
290
     0
176
     1
 93
        1
176
     1
 44
0.0
176
     1
173
     0
176
     1
  0
VISUALSTYLE
  5
33
102
{ACAD_REACTORS
330
2A
102
}
330
2A
100
AcDbVisualStyle
  2
Realistic
 70
     8
177
     2
291
     0
 71
     2
176
     1
 72
     2
176
     1
 73
     0
176
     1
 90
        0
176
     1
 40
-0.6
176
     1
 41
-30.0
176
     1
 62
     5
 63
     7
421
 16777215
176
     1
 74
     1
176
     1
 91
        0
176
     1
 64
     7
176
     1
 65
   257
176
     1
 75
     1
176
     1
175
     1
176
     1
 42
1.0
176
     1
 92
        8
176
     1
 66
     8
424
  7895160
176
     1
 43
1.0
176
     1
 76
     1
176
     1
 77
     6
176
     1
 78
     2
176
     1
 67
     7
176
     1
 79
     5
176
     1
170
     0
176
     1
171
     0
176
     1
290
     0
176
     1
 93
       13
176
     1
 44
0.0
176
     1
173
     0
176
     1
  0
VISUALSTYLE
  5
37
102
{ACAD_REACTORS
330
2A
102
}
330
2A
100
AcDbVisualStyle
  2
Thicken
 70
    13
177
     2
291
     1
 71
     2
176
     1
 72
     2
176
     1
 73
     0
176
     1
 90
        0
176
     1
 40
-0.6
176
     1
 41
-30.0
176
     1
 62
     5
 63
     7
421
 16777215
176
     1
 74
     1
176
     1
 91
        4
176
     1
 64
     7
176
     1
 65
   257
176
     1
 75
     1
176
     1
175
     1
176
     1
 42
1.0
176
     1
 92
       12
176
     1
 66
     7
176
     1
 43
1.0
176
     1
 76
     1
176
     1
 77
     6
176
     1
 78
     2
176
     1
 67
     7
176
     1
 79
     5
176
     1
170
     0
176
     1
171
     0
176
     1
290
     0
176
     1
 93
        1
176
     1
 44
0.0
176
     1
173
     0
176
     1
  0
ENDSEC
  0
EOF
